Oops, an error
Loading. Please wait.

Hold Me Down tab

version 2
version 2

Whole song

by Halsey
1,594 views 3 this week
no commentswrite comment
1 2 3 4 5
1 last vote to show rating
add to favorites
×
Save as Personal and add changes to this tab that will be seen only by you. Learn more ›
×
You can save this tab as Personal to edit and correct it or add notes. All changes will be seen only by you. Learn more »
launch autoscroll
font size
0
reset
how to read this tab
guitar tuner
edit
Autoscroll
slow
fast
+/-
esc
set tempo
stop
Author
Tabbed by: jcameronp

Tuning: standard, no capo

2 Guitars

--

Intro / Verse 1

Guitar 1 and/or 2:

e|-12-(over and over again)-16-(5x)-14-12-9----------------------------------|
B|---------------------------------------------------------------------------|
G|---------------------------------------------------------------------------| x3  
D|---------------------------------------------------------------------------|
A|---------------------------------------------------------------------------|
E|---------------------------------------------------------------------------|

Don't do the last part (16 14 12 9) during the "I sold my soul..." right before the chorus, just play 12

--

Chorus (I'm not totally sure if this is right but it sounds good. I tabbed it listening to the bassline)

Guitar 1:

e|---------------------------------------------------------------------------|
B|---------------------------------------------------------------------------|
G|--6------------------------------------------------------------------------| x2
D|--6-(x8)-2-(x8)-7-(x8)-9-(x8)----------------------------------------------|
A|--4------2------7------9---------------------------------------------------|
E|---------0------5------7---------------------------------------------------|

The intro / verse is also playing during the chorus

Guitar 2:

e|-12-(over and over again)-16-(5x)-14-12-9----------------------------------|
B|---------------------------------------------------------------------------|
G|---------------------------------------------------------------------------| x2 or 3 I think
D|---------------------------------------------------------------------------|
A|---------------------------------------------------------------------------|
E|---------------------------------------------------------------------------|

--

Verse 2

Guitar 1 and/or 2:

e|-12-(over and over again)-16-(5x)-14-12-9----------------------------------|
B|---------------------------------------------------------------------------|
G|---------------------------------------------------------------------------| x3
D|---------------------------------------------------------------------------|
A|---------------------------------------------------------------------------|
E|---------------------------------------------------------------------------|

Pause for a second after "They shush me..." And again, don't do the last part the third time through, just play
12

--

Chorus

Guitar 1:

e|---------------------------------------------------------------------------|
B|---------------------------------------------------------------------------|
G|--6------------------------------------------------------------------------| x2
D|--6-(x8)-2-(x8)-7-(x8)-9-(x8)----------------------------------------------|
A|--4------2------7------9---------------------------------------------------|
E|---------0------5------7---------------------------------------------------|


Guitar 2:

e|-12-(over and over again)-16-(5x)-14-12-9----------------------------------|
B|---------------------------------------------------------------------------|
G|---------------------------------------------------------------------------| x2 or 3 I think
D|---------------------------------------------------------------------------|
A|---------------------------------------------------------------------------|
E|---------------------------------------------------------------------------|

--

Bridge

Guitar 1 and/or 2:

e|-12-(over and over again)-16-(5x)-14-12-9----------------------------------|
B|---------------------------------------------------------------------------|
G|---------------------------------------------------------------------------| x3
D|---------------------------------------------------------------------------|
A|---------------------------------------------------------------------------|
E|---------------------------------------------------------------------------|

Remember not to play the ending right before the chorus and just pick 12

--

Chorus

Guitar 1:

e|---------------------------------------------------------------------------|
B|---------------------------------------------------------------------------|
G|--6------------------------------------------------------------------------| x2
D|--6-(x8)-2-(x8)-7-(x8)-9-(x8)----------------------------------------------|
A|--4------2------7------9---------------------------------------------------|
E|---------0------5------7---------------------------------------------------|

Guitar 2:

e|-12-(over and over again)-16-(5x)-14-12-9----------------------------------|
B|---------------------------------------------------------------------------|
G|---------------------------------------------------------------------------| x2 or 3 I think
D|---------------------------------------------------------------------------|
A|---------------------------------------------------------------------------|
E|---------------------------------------------------------------------------|

--

That's it! The whole song is really only 2 parts. 

            
            
Suggest correction
Creating personal tab
Creating personal tab
You can edit any tab online and save it as your Personal.

You can edit, replace or remove any tab part or add personal notes – all changes will be seen only by you.

Personal tabs can be accessed anytime from any device, even offline.
Learn more »
Give kudos to tab author, rate the tab!
1 2 3 4 5
comments
print report bad tab
guest
You may want to rate the tab now too:
select rating
Wanna post a correction for this tab? Suggest correction