Oops, an error
Loading. Please wait.

Roman Holiday tab

by Halsey
1,066 views 12 this week
no commentswrite comment
1 2 3 4 5
3 more votes to show rating
add to favorites
×
Save as Personal and add changes to this tab that will be seen only by you. Learn more ›
×
You can save this tab as Personal to edit and correct it or add notes. All changes will be seen only by you. Learn more »
launch autoscroll
font size
0
reset
how to read this tab
guitar tuner
edit
Autoscroll
slow
fast
+/-
esc
set tempo
stop
Author
Tabbed by: jcameronp

Tuning: standard, no capo

2 Guitars

--

Intro (I'm not sure about this)

Guitar 1 and/or 2:

e|---------------------------------------------------------------------------|
B|----10------8------10------------------------------------------------------|
G|-10-----10-----10----------------------------------------------------------| x2
D|---------------------------------------------------------------------------|
A|---------------------------------------------------------------------------|
E|---------------------------------------------------------------------------|

--

Verse 1 

Guitar 1:

In the beginning of it there's a weird noise in the background, I can't tell if it's vocals or an instrument
but it's just fret 7 of the G string over and over again and it stops at "I remember when my father..."

then there's what I think is a saxophone that plays

e|-8-8-13-13~-(slight bend on the second 13 as it fades out)-----------------|
B|---------------------------------------------------------------------------|
G|---------------------------------------------------------------------------|
D|---------------------------------------------------------------------------|
A|---------------------------------------------------------------------------|
E|---------------------------------------------------------------------------|

Intro comes back in around "I remember the fear in your eyes..."


e|---------------------------------------------------------------------------|
B|----10------8--------------------------------------------------------------|
G|-10-----10-----------------------------------------------------------------| cont. to chorus
D|---------------------------------------------------------------------------|
A|---------------------------------------------------------------------------|
E|---------------------------------------------------------------------------|

Also, while that is playing there's another sax sound, I think it's the same as before

Guitar 2:

e|-8-8-13-13~-(slight bend on the second 13 as it fades out)-----------------|
B|---------------------------------------------------------------------------|
G|---------------------------------------------------------------------------|
D|---------------------------------------------------------------------------|
A|---------------------------------------------------------------------------|
E|---------------------------------------------------------------------------|

--

Chorus

Guitar 1: (these power chords can be played on E, A, and D or A, D, and G)

e|---------------------------------------------------------------------------|
B|---------------------------------------------------------------------------|
G|---------------------------------------------------------------------------| 4x 
D|-3---------7---------5-----------------------------------------------------|
A|-3-(strum)-7-(strum)-5-(strum twice as long)-------------------------------|
E|-1---------5---------3-----------------------------------------------------|

Throughout the chorus, this is played:

e|---------------------------------------------------------------------------|
B|---------------------------------------------------------------------------|
G|-10-(picked over and over again)-------------------------------------------|
D|---------------------------------------------------------------------------|
A|---------------------------------------------------------------------------|
E|---------------------------------------------------------------------------|

Guitar 2: (this is played multiple times in the background, it's hard to hear so it's not that important
to play)

e|-5~-3~---------------------------------------------------------------------|
B|---------------------------------------------------------------------------|
G|---------------------------------------------------------------------------|
D|---------------------------------------------------------------------------|
A|---------------------------------------------------------------------------|
E|---------------------------------------------------------------------------|


--

Verse 2

Guitar 1 and/or 2

e|---------------------------------------------------------------------------|
B|----10------8--------------------------------------------------------------|
G|-10-----10-----------------------------------------------------------------| cont. to chorus
D|---------------------------------------------------------------------------|
A|---------------------------------------------------------------------------|
E|---------------------------------------------------------------------------|

The weird noise in the background: fret 7 of the G string over and over again, stops at "I remember
the weight..."

e|-8-8-13-13~-(slight bend on the second 13 as it fades out)-----------------|
B|---------------------------------------------------------------------------|
G|---------------------------------------------------------------------------|
D|---------------------------------------------------------------------------|
A|---------------------------------------------------------------------------|
E|---------------------------------------------------------------------------|

Guitar 1:

e|---------------------------------------------------------------------------|
B|----10------8--------------------------------------------------------------|
G|-10-----10-----------------------------------------------------------------| cont. to chorus
D|---------------------------------------------------------------------------|
A|---------------------------------------------------------------------------|
E|---------------------------------------------------------------------------|

Guitar 2:

e|-8-8-13-13~-(slight bend on the second 13 as it fades out)-----------------|
B|---------------------------------------------------------------------------|
G|---------------------------------------------------------------------------|
D|---------------------------------------------------------------------------|
A|---------------------------------------------------------------------------|
E|---------------------------------------------------------------------------|

--

Chorus

Guitar 1: (these power chords can be played on E, A, and D or A, D, and G)

e|---------------------------------------------------------------------------|
B|---------------------------------------------------------------------------|
G|---------------------------------------------------------------------------| 4x 
D|-3---------7---------5-----------------------------------------------------|
A|-3-(strum)-7-(strum)-5-(strum twice as long)-------------------------------|
E|-1---------5---------3-----------------------------------------------------|

Throughout the chorus, this is played:

e|---------------------------------------------------------------------------|
B|---------------------------------------------------------------------------|
G|-10-(picked over and over again)-------------------------------------------|
D|---------------------------------------------------------------------------|
A|---------------------------------------------------------------------------|
E|---------------------------------------------------------------------------|

Guitar 2: (this is played multiple times in the background, it's hard to hear so it's not that important
to play)

e|-5~-3~---------------------------------------------------------------------|
B|---------------------------------------------------------------------------|
G|---------------------------------------------------------------------------|
D|---------------------------------------------------------------------------|
A|---------------------------------------------------------------------------|
E|---------------------------------------------------------------------------|

--

Bridge

Guitar 1:

e|---------------------------------------------------------------------------|
B|---------------------------------------------------------------------------|
G|-3-------------------------------------------------------------------------|
D|-3-(just strum this all the way through with a pause in the middle---------|
A|-1-------------------------------------------------------------------------|
E|---------------------------------------------------------------------------|

Guitar 2:

e|---------------------------------------------------------------------------|
B|---------------------------------------------------------------------------|
G|-10-7-10-7-10-7-5/7--------------------------------------------------------| x4
D|---------------------------------------------------------------------------|
A|---------------------------------------------------------------------------|
E|---------------------------------------------------------------------------|

Instead of playing it all the way through the fourth time, skip the 5/7 and slide down to any fret

After the pause, repeat it 4x again but without either slide at the end, just skip that altogether.
You can play the 10th fret 4x with the drums in the song at this point

When vocals come back into the bridge:

Guitar 1:

e|---------------------------------------------------------------------------|
B|---------------------------------------------------------------------------|
G|-3-------------------------------------------------------------------------|
D|-3-(strum)-3---------------------------------------------------------------|
A|-1---------3-(strum)-------------------------------------------------------|
E|-----------1---------------------------------------------------------------|

Pause during clicking noise and then play again

Guitar 2:

e|---------------------------------------------------------------------------|
B|---------------------------------------------------------------------------|
G|-10-7-10-7-10-7-5/7--------------------------------------------------------| x4
D|---------------------------------------------------------------------------|
A|---------------------------------------------------------------------------|
E|---------------------------------------------------------------------------|

Pause during clicking noise and then play again

--

Final chorus

I can't figure out the tab for whatever the noise in the quiet beginning of the last chorus, sorry.

Guitar 1: (these power chords can be played on E, A, and D or A, D, and G)

e|---------------------------------------------------------------------------|
B|---------------------------------------------------------------------------|
G|---------------------------------------------------------------------------| 4x 
D|-3---------7---------5-----------------------------------------------------|
A|-3-(strum)-7-(strum)-5-(strum twice as long)-------------------------------|
E|-1---------5---------3-----------------------------------------------------|

Throughout the chorus, this is played:

e|---------------------------------------------------------------------------|
B|---------------------------------------------------------------------------|
G|-10-(picked over and over again)-------------------------------------------|
D|---------------------------------------------------------------------------|
A|---------------------------------------------------------------------------|
E|---------------------------------------------------------------------------|

Guitar 2: (this is played multiple times in the background, it's hard to hear so it's not that important
to play)

e|-5~-3~---------------------------------------------------------------------|
B|---------------------------------------------------------------------------|
G|---------------------------------------------------------------------------|
D|---------------------------------------------------------------------------|
A|---------------------------------------------------------------------------|
E|---------------------------------------------------------------------------|

--

Outro

Guitar 1:

e|---------------------------------------------------------------------------|
B|----10------8------10------------------------------------------------------|
G|-10-----10-----10----------------------------------------------------------| 
D|---------------------------------------------------------------------------|
A|---------------------------------------------------------------------------|
E|---------------------------------------------------------------------------|

Guitar 2:

e|-8-8-13-13~-(slight bend on the second 13 as it fades out)-----------------|
B|---------------------------------------------------------------------------|
G|---------------------------------------------------------------------------|
D|---------------------------------------------------------------------------|
A|---------------------------------------------------------------------------|
E|---------------------------------------------------------------------------|

            
            
Suggest correction
Creating personal tab
Creating personal tab
You can edit any tab online and save it as your Personal.

You can edit, replace or remove any tab part or add personal notes – all changes will be seen only by you.

Personal tabs can be accessed anytime from any device, even offline.
Learn more »
Give kudos to tab author, rate the tab!
1 2 3 4 5
comments
print report bad tab
guest
You may want to rate the tab now too:
select rating
Wanna post a correction for this tab? Suggest correction