Oops, an error
Loading. Please wait.

Strangers Stripped tab

by Halsey
136 views 12 this week
no commentswrite comment
1 2 3 4 5
3 more votes to show rating
add to favorites
×
Save as Personal and add changes to this tab that will be seen only by you. Learn more ›
×
You can save this tab as Personal to edit and correct it or add notes. All changes will be seen only by you. Learn more »
launch autoscroll
font size
0
reset
how to read this tab
guitar tuner
edit
Autoscroll
slow
fast
+/-
esc
set tempo
stop
Halsey
"Strangers Stripped"

Standard tuning.

[Intro]
  G1
e|5---------------|----------------|----------------|----------------|
B|----------------|----------------|----------------|----------------|
G|----------------|----------------|----------------|----------------|
D|----------------|----------------|----------------|----------------|
A|----------------|----------------|----------------|----------------|
E|----------------|----------------|----------------|----------------|
 |G2
e|----------------|----------------|----------------|----------------|
B|3-3-3-3-3-3-3-3-|7-7-7-7-7-7-7-7-|5-5-5-5-5-5-5-5-|0-0-0-2-2-2-2-2-|
G|4-4-4-4-4-4-4-4-|7-7-7-7-7-7-7-7-|6-6-6-6-6-6-6-6-|0-0-0-2-2-2-2-2-|
D|5-5-5-5-5-5-5-5-|9-9-9-9-9-9-9-9-|7-7-7-7-7-7-7-7-|2-2-2-4-4-4-4-4-|
A|5-5-5-5-5-5-5-5-|9-9-9-9-9-9-9-9-|7-7-7-7-7-7-7-7-|2-2-2-4-4-4-4-4-|
E|3-3-3-3-3-3-3-3-|7-7-7-7-7-7-7-7-|5-5-5-5-5-5-5-5-|0-0-0-2-2-2-2-2-|

[Verse]
  G1,2
e|----------------|----------------|----------------|----------------|
B|3-3-3-3-3-3-3-3-|7-7-7-7-7-7-7-7-|5-5-5-5-5-5-5-5-|0-0-0-2-2-2-2-2-|
G|4-4-4-4-4-4-4-4-|7-7-7-7-7-7-7-7-|6-6-6-6-6-6-6-6-|0-0-0-2-2-2-2-2-|
D|5-5-5-5-5-5-5-5-|9-9-9-9-9-9-9-9-|7-7-7-7-7-7-7-7-|2-2-2-4-4-4-4-4-| x2
A|5-5-5-5-5-5-5-5-|9-9-9-9-9-9-9-9-|7-7-7-7-7-7-7-7-|2-2-2-4-4-4-4-4-|
E|3-3-3-3-3-3-3-3-|7-7-7-7-7-7-7-7-|5-5-5-5-5-5-5-5-|0-0-0-2-2-2-2-2-|

[Pre-Chorus]

e|------5---------|----------------|----------------|----------------|
B|----3-----------|----------------|----------------|----------------|
G|----------------|----------------|----------------|----------------|
D|----------------|----------------|----------------|----------------|
A|----------------|----------------|----------------|----------------|
E|----------------|----------------|----------------|----------------|
 |
e|----------------|----------------|----------------|5---------------|
B|3-3-3-3-3-3-3-3-|7-7-7-7-7-7-7-7-|5-5-5-5-5-5-5-5-|5---------------|
G|4-4-4-4-4-4-4-4-|7-7-7-7-7-7-7-7-|6-6-6-6-6-6-6-6-|6---------------|
D|5-5-5-5-5-5-5-5-|9-9-9-9-9-9-9-9-|7-7-7-7-7-7-7-7-|7---------------|
A|5-5-5-5-5-5-5-5-|9-9-9-9-9-9-9-9-|7-7-7-7-7-7-7-7-|7---------------|
E|3-3-3-3-3-3-3-3-|7-7-7-7-7-7-7-7-|5-5-5-5-5-5-5-5-|5---------------|

[Chorus]

e|----------------|----------------|----------------|----------------|
B|3--------/5--/7-|----------10-\5-|--------------0-|------2-------2/|
G|4--------/6--/7-|----------11-\6-|--------------0-|------2-------2/|
D|5--------/7--/9-|----------12-\7-|--------------2-|------4-------4/|
A|----------------|----------------|----------------|----------------|
E|----------------|----------------|----------------|----------------|
 |
e|----------------|----------------|----------------|----------------|
B|3---3-3-3-5-5-3-|3-3-3-3-3/7-7-5-|5-5-5-5-5-5-5-0-|0-0-0-2-2-2-2-2-|
G|4---4-4-4-6-6-4-|4-4-4-4-4/7-7-6-|6-6-6-6-6-6-6-0-|0-0-0-2-2-2-2-2-|
D|5---5-5-5-7-7-4-|4-4-4-4-4/7-7-7-|7-7-7-7-7-7-7-2-|2-2-2-4-4-4-4-4-|
A|5---5-5-5-7-7-2-|2-2-2-2-2/5-5-7-|7-7-7-7-7-7-7-2-|2-2-2-4-4-4-4-4-|
E|3---3-3-3-5-5---|--------------5-|5-5-5-5-5-5-5-0-|0-0-0-2-2-2-2-2-|


e|----------------|----------------|----------------|----------------|
B|3--------/5--/7-|----------10-\5-|--------------0-|------2-------2/|
G|4--------/6--/7-|----------11-\6-|--------------0-|------2-------2/|
D|5--------/7--/9-|----------12-\7-|--------------2-|------4-------4/|
A|----------------|----------------|----------------|----------------|
E|----------------|----------------|----------------|----------------|
 |
e|----------------|----------------|----------------|----------------|
B|3-3-3-3-3-5-5-3-|3-3-3-3-3/7-7-5-|5-5-5-5-5-----0-|0-0-0-2-2-2-2-2-|
G|4-4-4-4-4-6-6-4-|4-4-4-4-4/7-7-6-|6-6-6-6-6-----0-|0-0-0-2-2-2-2-2-|
D|5-5-5-5-5-7-7-4-|4-4-4-4-4/7-7-7-|7-7-7-7-7-9-7-2-|2-2-2-4-4-4-4-4-|
A|5-5-5-5-5-7-7-2-|2-2-2-2-2/5-5-7-|7-7-7-7-7-9-7-2-|2-2-2-4-4-4-4-4-|
E|3-3-3-3-3-5-5---|--------------5-|5-5-5-5-5-7-5-0-|0-0-0-2-2-2-2-2-|


e|----------------|----------------|----------------|----------------|
B|3--------/5--/7-|----------10-\5-|--------------0-|------2-------2/|
G|4--------/6--/7-|----------11-\6-|--------------0-|------2-------2/|
D|5--------/7--/9-|----------12-\7-|--------------2-|------4-------4/|
A|----------------|----------------|----------------|----------------|
E|----------------|----------------|----------------|----------------|
 |
e|----------------|----------------|----------------|----------------|
B|3-3-3-3-3-5-5-3-|3-3-3-3-3/7-7-5-|5-5-5-5-5-----0-|0-0-0-2-2-2-2-2-|
G|4-4-4-4-4-6-6-4-|4-4-4-4-4/7-7-6-|6-6-6-6-6-----0-|0-0-0-2-2-2-2-2-|
D|5-5-5-5-5-7-7-4-|4-4-4-4-4/7-7-7-|7-7-7-7-7-9-7-2-|2-2-2-4-4-4-4-4-|
A|5-5-5-5-5-7-7-2-|2-2-2-2-2/5-5-7-|7-7-7-7-7-9-7-2-|2-2-2-4-4-4-4-4-|
E|3-3-3-3-3-5-5---|--------------5-|5-5-5-5-5-7-5-0-|0-0-0-2-2-2-2-2-|


e|----------------|----------------|----------------|----------------|
B|3--------/5--/7-|----------10-\5-|--------------0-|------2-------2/|
G|4--------/6--/7-|----------11-\6-|--------------0-|------2-------2/|
D|5--------/7--/9-|----------12-\7-|--------------2-|------4-------4/|
A|----------------|----------------|----------------|----------------|
E|----------------|----------------|----------------|----------------|
 |
e|----------------|----------------|----------------|----------------|
B|3-3-3-3-3-5-5-3-|3-3-3-3-3/7-7-5-|5-5-5-5-5-5-5-0-|0-0-0-2-2-2-2-2-|
G|4-4-4-4-4-6-6-4-|4-4-4-4-4/7-7-6-|6-6-6-6-6-6-6-0-|0-0-0-2-2-2-2-2-|
D|5-5-5-5-5-7-7-4-|4-4-4-4-4/7-7-7-|7-7-7-7-7-7-7-2-|2-2-2-4-4-4-4-4-|
A|5-5-5-5-5-7-7-2-|2-2-2-2-2/5-5-7-|7-7-7-7-7-7-7-2-|2-2-2-4-4-4-4-4-|
E|3-3-3-3-3-5-5---|--------------5-|5-5-5-5-5-5-5-0-|0-0-0-2-2-2-2-2-|

[Verse]
  G1,2
e|----------------|----------------|----------------|----------------|
B|3-3-3-3-3-3-3-3-|7-7-7-7-7-7-7-5-|5-5-5-5-5-----0-|0-0-0-2-2-2-2-2-|
G|4-4-4-4-4-4-4-4-|7-7-7-7-7-7-7-6-|6-6-6-6-6-----0-|0-0-0-2-2-2-2-2-|
D|5-5-5-5-5-5-5-5-|9-9-9-9-9-9-9-7-|7-7-7-7-7-9-7-2-|2-2-2-4-4-4-4-4-|
A|5-5-5-5-5-5-5-5-|9-9-9-9-9-9-9-7-|7-7-7-7-7-9-7-2-|2-2-2-4-4-4-4-4-|
E|3-3-3-3-3-3-3-3-|7-7-7-7-7-7-7-5-|5-5-5-5-5-7-5-0-|0-0-0-2-2-2-2-2-|

e|----------------|----------------|----------------|----------------|
B|3-3-3-3-3-3-3-3-|7-7-7-7-7-7-7-5-|5-5-5-5-5-5-5-0-|0-0-0-2-2-2-2-2-|
G|4-4-4-4-4-4-4-4-|7-7-7-7-7-7-7-6-|6-6-6-6-6-6-6-0-|0-0-0-2-2-2-2-2-|
D|5-5-5-5-5-5-5-5-|9-9-9-9-9-9-9-7-|7-7-7-7-7-7-7-2-|2-2-2-4-4-4-4-4-|
A|5-5-5-5-5-5-5-5-|9-9-9-9-9-9-9-7-|7-7-7-7-7-7-7-2-|2-2-2-4-4-4-4-4-|
E|3-3-3-3-3-3-3-3-|7-7-7-7-7-7-7-5-|5-5-5-5-5-5-5-0-|0-0-0-2-2-2-2-2-|

[Pre-Chorus]
  G1
e|------5---------|----------------|----------------|----------------|
B|----3-----------|----------------|----------------|----------------|
G|----------------|----------------|----------------|----------------|
D|----------------|----------------|----------------|----------------|
A|----------------|----------------|----------------|----------------|
E|----------------|----------------|----------------|----------------|
 |G2
e|----------------|----------------|----------------|5---------------|
B|3-3-3-3-3-3-3-3-|7-7-7-7-7-7-7-7-|5-5-5-5-5-5-5-5-|5---------------|
G|4-4-4-4-4-4-4-4-|7-7-7-7-7-7-7-7-|6-6-6-6-6-6-6-6-|6---------------|
D|5-5-5-5-5-5-5-5-|9-9-9-9-9-9-9-9-|7-7-7-7-7-7-7-7-|7---------------|
A|5-5-5-5-5-5-5-5-|9-9-9-9-9-9-9-9-|7-7-7-7-7-7-7-7-|7---------------|
E|3-3-3-3-3-3-3-3-|7-7-7-7-7-7-7-7-|5-5-5-5-5-5-5-5-|5---------------|

[Chorus]

e|----------------|----------------|----------------|----------------|
B|3--------/5--/7-|----------10-\5-|--------------0-|------2-------2/|
G|4--------/6--/7-|----------11-\6-|--------------0-|------2-------2/|
D|5--------/7--/9-|----------12-\7-|--------------2-|------4-------4/|
A|----------------|----------------|----------------|----------------|
E|----------------|----------------|----------------|----------------|
 |
e|----------------|----------------|----------------|----------------|
B|3---3-3-3-5-5-3-|3-3-3-3-3/7-7-5-|5-5-5-5-5-5-5-0-|0-0-0-2-2-2-2-2-|
G|4---4-4-4-6-6-4-|4-4-4-4-4/7-7-6-|6-6-6-6-6-6-6-0-|0-0-0-2-2-2-2-2-|
D|5---5-5-5-7-7-4-|4-4-4-4-4/7-7-7-|7-7-7-7-7-7-7-2-|2-2-2-4-4-4-4-4-|
A|5---5-5-5-7-7-2-|2-2-2-2-2/5-5-7-|7-7-7-7-7-7-7-2-|2-2-2-4-4-4-4-4-|
E|3---3-3-3-5-5---|--------------5-|5-5-5-5-5-5-5-0-|0-0-0-2-2-2-2-2-|


e|----------------|----------------|----------------|----------------|
B|3--------/5--/7-|----------10-\5-|--------------0-|------2-------2/|
G|4--------/6--/7-|----------11-\6-|--------------0-|------2-------2/|
D|5--------/7--/9-|----------12-\7-|--------------2-|------4-------4/|
A|----------------|----------------|----------------|----------------|
E|----------------|----------------|----------------|----------------|
 |
e|----------------|----------------|----------------|----------------|
B|3-3-3-3-3-5-5-3-|3-3-3-3-3/7-7-5-|5-5-5-5-5-----0-|0-0-0-2-2-2-2-2-|
G|4-4-4-4-4-6-6-4-|4-4-4-4-4/7-7-6-|6-6-6-6-6-----0-|0-0-0-2-2-2-2-2-|
D|5-5-5-5-5-7-7-4-|4-4-4-4-4/7-7-7-|7-7-7-7-7-9-7-2-|2-2-2-4-4-4-4-4-|
A|5-5-5-5-5-7-7-2-|2-2-2-2-2/5-5-7-|7-7-7-7-7-9-7-2-|2-2-2-4-4-4-4-4-|
E|3-3-3-3-3-5-5---|--------------5-|5-5-5-5-5-7-5-0-|0-0-0-2-2-2-2-2-|


e|----------------|----------------|----------------|----------------|
B|3--------/5--/7-|----------10-\5-|--------------0-|------2-------2/|
G|4--------/6--/7-|----------11-\6-|--------------0-|------2-------2/|
D|5--------/7--/9-|----------12-\7-|--------------2-|------4-------4/|
A|----------------|----------------|----------------|----------------|
E|----------------|----------------|----------------|----------------|
 |
e|----------------|----------------|----------------|----------------|
B|3-3-3-3-3-5-5-3-|3-3-3-3-3/7-7-5-|5-5-5-5-5-----0-|0-0-0-2-2-2-2-2-|
G|4-4-4-4-4-6-6-4-|4-4-4-4-4/7-7-6-|6-6-6-6-6-----0-|0-0-0-2-2-2-2-2-|
D|5-5-5-5-5-7-7-4-|4-4-4-4-4/7-7-7-|7-7-7-7-7-9-7-2-|2-2-2-4-4-4-4-4-|
A|5-5-5-5-5-7-7-2-|2-2-2-2-2/5-5-7-|7-7-7-7-7-9-7-2-|2-2-2-4-4-4-4-4-|
E|3-3-3-3-3-5-5---|--------------5-|5-5-5-5-5-7-5-0-|0-0-0-2-2-2-2-2-|


e|----------------|----------------|----------------|----------------|
B|3--------/5--/7-|----------10-\5-|--------------0-|------2-------2/|
G|4--------/6--/7-|----------11-\6-|--------------0-|------2-------2/|
D|5--------/7--/9-|----------12-\7-|--------------2-|------4-------4/|
A|----------------|----------------|----------------|----------------|
E|----------------|----------------|----------------|----------------|
 |
e|----------------|----------------|----------------|----------------|
B|3-3-3-3-3-5-5-3-|3-3-3-3-3/7-7-5-|5-5-5-5-5-5-5-0-|0-0-0-2-2-2-2-2-|
G|4-4-4-4-4-6-6-4-|4-4-4-4-4/7-7-6-|6-6-6-6-6-6-6-0-|0-0-0-2-2-2-2-2-|
D|5-5-5-5-5-7-7-4-|4-4-4-4-4/7-7-7-|7-7-7-7-7-7-7-2-|2-2-2-4-4-4-4-4-|
A|5-5-5-5-5-7-7-2-|2-2-2-2-2/5-5-7-|7-7-7-7-7-7-7-2-|2-2-2-4-4-4-4-4-|
E|3-3-3-3-3-5-5---|--------------5-|5-5-5-5-5-5-5-0-|0-0-0-2-2-2-2-2-|

[Bridge]
  G2
e|0---------------|5---------------|0---------------|2---------------|
B|0---------------|7---------------|2---------------|3---------------|
G|0---------------|7---------------|2---------------|4---------------|
D|2---------------|7---------------|2---------------|4---------------|
A|2---------------|5---------------|0---------------|2---------------|
E|0---------------|----------------|----------------|----------------|

e|0---------------|5---------------|0---------------|----------------|
B|0---------------|7---------------|2---------------|----------------|
G|0---------------|7---------------|2---------------|----------------|
D|2---------------|7---------------|2---------------|----------------|
A|2---------------|5---------------|0---------------|----------------|
E|0---------------|----------------|----------------|----------------|

[Chorus]
  G1
e|----------------|----------------|----------------|----------------|
B|3--------/5--/7-|----------10-\5-|--------------0-|------2-------2/|
G|4--------/6--/7-|----------11-\6-|--------------0-|------2-------2/|
D|5--------/7--/9-|----------12-\7-|--------------2-|------4-------4/|
A|----------------|----------------|----------------|----------------|
E|----------------|----------------|----------------|----------------|
 |G2
e|----------------|----------------|----------------|----------------|
B|3---3-3-3-5-5-3-|3-3-3-3-3/7-7-5-|5-5-5-5-5-5-5-0-|0-0-0-2-2-2-2-2-|
G|4---4-4-4-6-6-4-|4-4-4-4-4/7-7-6-|6-6-6-6-6-6-6-0-|0-0-0-2-2-2-2-2-|
D|5---5-5-5-7-7-4-|4-4-4-4-4/7-7-7-|7-7-7-7-7-7-7-2-|2-2-2-4-4-4-4-4-|
A|5---5-5-5-7-7-2-|2-2-2-2-2/5-5-7-|7-7-7-7-7-7-7-2-|2-2-2-4-4-4-4-4-|
E|3---3-3-3-5-5---|--------------5-|5-5-5-5-5-5-5-0-|0-0-0-2-2-2-2-2-|


e|----------------|----------------|----------------|----------------|
B|3--------/5--/7-|----------10-\5-|--------------0-|------2-------2/|
G|4--------/6--/7-|----------11-\6-|--------------0-|------2-------2/|
D|5--------/7--/9-|----------12-\7-|--------------2-|------4-------4/|
A|----------------|----------------|----------------|----------------|
E|----------------|----------------|----------------|----------------|
 |
e|----------------|----------------|----------------|----------------|
B|3-3-3-3-3-5-5-3-|3-3-3-3-3/7-7-5-|5-5-5-5-5-----0-|0-0-0-2-2-2-2-2-|
G|4-4-4-4-4-6-6-4-|4-4-4-4-4/7-7-6-|6-6-6-6-6-----0-|0-0-0-2-2-2-2-2-|
D|5-5-5-5-5-7-7-4-|4-4-4-4-4/7-7-7-|7-7-7-7-7-9-7-2-|2-2-2-4-4-4-4-4-|
A|5-5-5-5-5-7-7-2-|2-2-2-2-2/5-5-7-|7-7-7-7-7-9-7-2-|2-2-2-4-4-4-4-4-|
E|3-3-3-3-3-5-5---|--------------5-|5-5-5-5-5-7-5-0-|0-0-0-2-2-2-2-2-|


e|----------------|----------------|----------------|----------------|
B|3--------/5--/7-|----------10-\5-|--------------0-|------2-------2/|
G|4--------/6--/7-|----------11-\6-|--------------0-|------2-------2/|
D|5--------/7--/9-|----------12-\7-|--------------2-|------4-------4/|
A|----------------|----------------|----------------|----------------|
E|----------------|----------------|----------------|----------------|
 |
e|----------------|----------------|----------------|----------------|
B|3-3-3-3-3-5-5-3-|3-3-3-3-3/7-7-5-|5-5-5-5-5-----0-|0-0-0-2-2-2-2-2-|
G|4-4-4-4-4-6-6-4-|4-4-4-4-4/7-7-6-|6-6-6-6-6-----0-|0-0-0-2-2-2-2-2-|
D|5-5-5-5-5-7-7-4-|4-4-4-4-4/7-7-7-|7-7-7-7-7-9-7-2-|2-2-2-4-4-4-4-4-|
A|5-5-5-5-5-7-7-2-|2-2-2-2-2/5-5-7-|7-7-7-7-7-9-7-2-|2-2-2-4-4-4-4-4-|
E|3-3-3-3-3-5-5---|--------------5-|5-5-5-5-5-7-5-0-|0-0-0-2-2-2-2-2-|


e|----------------|----------------|----------------|----------------|
B|3--------/5--/7-|----------10-\5-|----------------|----------------|
G|4--------/6--/7-|----------11-\6-|----------7~----|----------4h6---|
D|5--------/7--/9-|----------12-\7-|----------------|----------------|
A|----------------|----------------|----------------|----------------|
E|----------------|----------------|----------------|----------------|
 |
e|----------------|----------------|----------------|----------------|
B|3-3-3-3-3-5-5-3-|3-3-3-3-3/7-7-5-|5-5-5-5-5-5-5-5-|5-5-5-5-5-------|
G|4-4-4-4-4-6-6-4-|4-4-4-4-4/7-7-6-|6-6-6-6-6-6-6-6-|6-6-6-6-6-------|
D|5-5-5-5-5-7-7-4-|4-4-4-4-4/7-7-7-|7-7-7-7-7-7-7-7-|7-7-7-7-7-------|
A|5-5-5-5-5-7-7-2-|2-2-2-2-2/5-5-7-|7-7-7-7-7-7-7-7-|7-7-7-7-7-------|
E|3-3-3-3-3-5-5---|--------------5-|5-5-5-5-5-5-5-5-|5-5-5-5-5-------|

[Outro]

e|----------------|----------------|----------------|----------------|
B|----------------|----------------|----------------|----------------|
G|6gb-------------|gr--------------|--------6b7r6---|----------------|
D|----------------|----------------|--------------7-|----------------|
A|----------------|----------------|----------------|----------------|
E|----------------|----------------|----------------|----------------|
 |
e|----------------|----------------|----------------|----------------|
B|3-3-3-3-3-5-5-3-|3-3-3-3-3/7-7-5-|5-5-5-5-5-----0-|0-0-0-2-2-2-2-2-|
G|4-4-4-4-4-6-6-4-|4-4-4-4-4/7-7-6-|6-6-6-6-6-----0-|0-0-0-2-2-2-2-2-|
D|5-5-5-5-5-7-7-4-|4-4-4-4-4/7-7-7-|7-7-7-7-7-9-7-2-|2-2-2-4-4-4-4-4-|
A|5-5-5-5-5-7-7-2-|2-2-2-2-2/5-5-7-|7-7-7-7-7-9-7-2-|2-2-2-4-4-4-4-4-|
E|3-3-3-3-3-5-5---|--------------5-|5-5-5-5-5-7-5-0-|0-0-0-2-2-2-2-2-|


e|----------------|----------------|----------------|----------------|
B|----------------|----------------|----------------|----------------|
G|6gb-------------|gr--------------|----------------|----------------|
D|----------------|----------------|----------------|----------------|
A|----------------|----------------|----------------|----------------|
E|----------------|----------------|----------------|----------------|
 |
e|----------------|----------------|----------------|----------------|
B|3-3-3-3-3-5-5-3-|3-3-3-3-3/7-7-5-|5-5-5-5-5-5-5-5-|5---------------|
G|4-4-4-4-4-6-6-4-|4-4-4-4-4/7-7-6-|6-6-6-6-6-6-6-6-|6---------------|
D|5-5-5-5-5-7-7-4-|4-4-4-4-4/7-7-7-|7-7-7-7-7-7-7-7-|7---------------|
A|5-5-5-5-5-7-7-2-|2-2-2-2-2/5-5-7-|7-7-7-7-7-7-7-7-|7---------------|
E|3-3-3-3-3-5-5---|--------------5-|5-5-5-5-5-5-5-5-|5---------------|



************************************

| gb  Gradual bend
| gr  Gradual release
| h   Hammer-on
| ~   Vibrato

************************************

            
            
Suggest correction
Creating personal tab
Creating personal tab
You can edit any tab online and save it as your Personal.

You can edit, replace or remove any tab part or add personal notes – all changes will be seen only by you.

Personal tabs can be accessed anytime from any device, even offline.
Learn more »
Give kudos to tab author, rate the tab!
1 2 3 4 5
comments
print report bad tab
guest
You may want to rate the tab now too:
select rating
Wanna post a correction for this tab? Suggest correction