Oops, an error
Loading. Please wait.

Young God tab

by Halsey
4,128 views 6 this week
3 commentsread comments
1 2 3 4 5
x 10
add to favorites
×
Save as Personal and add changes to this tab that will be seen only by you. Learn more ›
×
You can save this tab as Personal to edit and correct it or add notes. All changes will be seen only by you. Learn more »
launch autoscroll
font size
0
reset
how to read this tab
guitar tuner
edit
Autoscroll
slow
fast
+/-
esc
set tempo
stop
Author
(For the part where she sings "you know the two of us are just young gods", you could either play it how
I tabbed it or you could play:)
 you know the two of us are just young gods
e|-----------------------------------3---0--|
B|--------------1---1--1---1---1-----------3|
G|-2----2---2-------------------------------|
D|------------------------------------------|
A|------------------------------------------|
E|------------------------------------------|

[Verse]
"He says..
 Oh, baby girl, you know we're gonna be legends,   I'm the king and you're
e|0---------0----0-------------0--1---0----0-----|----------0----0------------|
B|---1-1-------------1----1-------------------3--|--1---1-------------1-------|
G|-----------------------------------------------|----------------------------|
D|-----------------------------------------------|----------------------------|
A|-----------------------------------------------|----------------------------|
E|-----------------------------------------------|----------------------------|

 the queen and we will stumble through heaven,  if there's a light at the end,
e|-----0----0-----------0--1-----0-----0------|----------------3---3---0------|
B|1------------1---1----------------------3---|-1----1-----1---------------3--|
G|--------------------------------------------|-------------------------------|
D|--------------------------------------------|-------------------------------|
A|--------------------------------------------|-------------------------------|
E|--------------------------------------------|-------------------------------|

 it's just the sun in your eyes, I know you wanna go to heaven but you're human                  
e|--------------3---3---0------|------------0--0--------0---0--------------0-3--|
B|-1---1----1---------------3--|-1---1---1---------1--1---------1----1----------|
G|-----------------------------|------------------------------------------------|
D|-----------------------------|------------------------------------------------|
A|-----------------------------|------------------------------------------------|
E|-----------------------------|------------------------------------------------|

 tonight
e|-------|
B|-1--1--|
G|------2|
D|-------|
A|-------|
E|-------|

[Pre-Chorus]
  And I've been sitting at the bottom of a swimming pool,  for a while now
e|----------------------------------------------0---0----|--------------------|
B|-----------------------1--1---1---1--1--1--3---------3-|--3--1---3----1-----|
G|-2---2---2-----2---2-----------------------------------|----------------2---|
D|-------------------------------------------------------|--------------------|
A|-------------------------------------------------------|--------------------|
E|-------------------------------------------------------|--------------------|

  drowning my thoughts out, the sounds
e|-3---3---0-----3-----0----------0-------------------------------------------|
B|-----------------------3---1------------------------------------------------|
G|----------------------------------------------------------------------------|
D|----------------------------------------------------------------------------|
A|----------------------------------------------------------------------------|
E|----------------------------------------------------------------------------|

[Chorus]
 But do you feel like a young God?, you know the two of us are just young gods
e|------------------------3----0---|----------------------------------3----0--|
B|----------------1---1------------|---------------------1--1---1------------3|
G|2--2---2---2---------------------|-2----2---2---2---2-----------------------|
D|---------------------------------|------------------------------------------|
A|---------------------------------|------------------------------------------|
E|---------------------------------|------------------------------------------|

 And we'll be flying through the streets with the people underneath
e|---------------0----------------------|-------------0-------------------------|
B|3----3----3--3--------3-----1---------|--------3------3----1------------------|
G|---------------------------------2----|--2--2------------------------2--------|
D|--------------------------------------|---------------------------------------|
A|--------------------------------------|---------------------------------------|
E|--------------------------------------|---------------------------------------|

 And they're running, running, running                                      (x2)
e|-----------3----0---3-----0--3-----0--------------------------------------|
B|-1---1--------------------------------------------------------------------|
G|--------------------------------------------------------------------------|
D|--------------------------------------------------------------------------|
A|--------------------------------------------------------------------------|
E|--------------------------------------------------------------------------|

After repeat of chorus:
 We'll be running, running, running, again                                 (x2)
e|--------3----0---3----0----3----0------------------------------------------|
B|-1---1------------------------------1-1------------------------------------|
G|----------------------------------------2----------------------------------|
D|---------------------------------------------------------------------------|
A|---------------------------------------------------------------------------|
E|---------------------------------------------------------------------------|

[Verse]
"He says "Oh, baby girl, don't get caught on my edges
e|0---------0----0-------------0--1---0----0-----|----------0----0------------|
B|---1-1-------------1----1-------------------3--|--1---1-------------1-------|
G|-----------------------------------------------|----------------------------|
D|-----------------------------------------------|----------------------------|
A|-----------------------------------------------|----------------------------|
E|-----------------------------------------------|----------------------------|

I'm the king of everything and oh, my tongue is a weapon
e|-----0----0-----------0--1-----0-----0------|----------------3---3---0------|
B|1------------1---1----------------------3---|-1----1-----1---------------3--|
G|--------------------------------------------|-------------------------------|
D|--------------------------------------------|-------------------------------|
A|--------------------------------------------|-------------------------------|
E|--------------------------------------------|-------------------------------|

There's a light in the crack that's separating your thighs
e|--------------3---3---0------|------------0--0--------0---0--------------0-3--|
B|-1---1----1---------------3--|-1---1---1---------1--1---------1----1----------|
G|-----------------------------|------------------------------------------------|
D|-----------------------------|------------------------------------------------|
A|-----------------------------|------------------------------------------------|
E|-----------------------------|------------------------------------------------|

And if you wanna go to heaven you should fuck me tonight"
e|-------|
B|-1--1--|
G|------2|
D|-------|
A|-------|
E|-------|

[Pre-Chorus]
And I've been sitting at the bottom of a swimming pool
e|----------------------------------------------0---0----|--------------------|
B|-----------------------1--1---1---1--1--1--3---------3-|--3--1---3----1-----|
G|-2---2---2-----2---2-----------------------------------|----------------2---|
D|-------------------------------------------------------|--------------------|
A|-------------------------------------------------------|--------------------|
E|-------------------------------------------------------|--------------------|

For a while now, drowning my thoughts out, the sounds"
e|-3---3---0-----3-----0----------0-------------------------------------------|
B|-----------------------3---1------------------------------------------------|
G|----------------------------------------------------------------------------|
D|----------------------------------------------------------------------------|
A|----------------------------------------------------------------------------|
E|----------------------------------------------------------------------------|

[Chorus]
 But do you feel like a young God?, you know the two of us are just young gods
e|------------------------3----0---|----------------------------------3----0--|
B|----------------1---1------------|---------------------1--1---1------------3|
G|2--2---2---2---------------------|-2----2---2---2---2-----------------------|
D|---------------------------------|------------------------------------------|
A|---------------------------------|------------------------------------------|
E|---------------------------------|------------------------------------------|

 And we'll be flying through the streets with the people underneath
e|---------------0----------------------|-------------0-------------------------|
B|3----3----3--3--------3-----1---------|--------3------3----1------------------|
G|---------------------------------2----|--2--2------------------------2--------|
D|--------------------------------------|---------------------------------------|
A|--------------------------------------|---------------------------------------|
E|--------------------------------------|---------------------------------------|

 And they're running, running, running                                      (x2)
e|-----------3----0---3-----0--3-----0--------------------------------------|
B|-1---1--------------------------------------------------------------------|
G|--------------------------------------------------------------------------|
D|--------------------------------------------------------------------------|
A|--------------------------------------------------------------------------|
E|--------------------------------------------------------------------------|

After repeat of chorus:
 We'll be running, running, running, again                                 (x2)
e|--------3----0---3----0----3----0------------------------------------------|
B|-1---1------------------------------1-1------------------------------------|
G|----------------------------------------2----------------------------------|
D|---------------------------------------------------------------------------|
A|---------------------------------------------------------------------------|
E|---------------------------------------------------------------------------|

            
            
Suggest correction
Creating personal tab
Creating personal tab
You can edit any tab online and save it as your Personal.

You can edit, replace or remove any tab part or add personal notes – all changes will be seen only by you.

Personal tabs can be accessed anytime from any device, even offline.
Learn more »
comments
print report bad tab
3 comments total.
0 reply
tasha.rox.34 91 Sep 19, 2015 05:48 AM

I think the "with the people underneath" part sounds better like this:

e|-------------0-------------------------|
B|---------3------3----1-----------------|
G|-2---2---------------------------------|

guest
You may want to rate the tab now too:
select rating
Wanna post a correction for this tab? Suggest correction