Oops, an error
Loading. Please wait.

Badehotellet tab

106 views 1 this week
no commentswrite comment
1 2 3 4 5
x 4
add to favorites
×
Save as Personal and add changes to this tab that will be seen only by you. Learn more ›
×
You can save this tab as Personal to edit and correct it or add notes. All changes will be seen only by you. Learn more »
launch autoscroll
font size
0
reset
how to read this tab
guitar tuner
edit
Autoscroll
slow
fast
+/-
esc
set tempo
stop
Author
Difficulty
Melodi: Badehotellet (Halvdan / Kaas)
Från TV serien med samma namn. ( som är helt underbar)
Detta är den svängiga signatur melodin som inte går att missa.
Ackordanalys: Mats Fagergren 2016-03-03

Chords    E.A.D.G.B.e
F6/9.     x.x.3.2.3.3
Eaug.     x.x.2.1.1.0
F.        1.3.3.2.1.1 alt x.8.10.10.10.8
Eb7.      x.6.8.6.8.6
D7.       x.5.7.5.7.5
Gm.       3.5.5.3.3.3
Bb7       x.1.3.1.3.1
C7.       x.3.5.3.5.3 alt 8.10.8.9.8.8
Am.       5.7.7.5.5.5
E7.       x.7.9.7.9.7
B7.       7.9.7.8.7.7
Gm9.      3.5.3.3.3.5
C6.       x.3.5.5.5.5
F6.       x.x.3.2.1.3

Rytm: 30-tals Jazz...! (relativt snabbt)

| F6/9 /// Eaug / | F6/9 ///  Eaug /|

        F              Eb7    D7     

|--------------10-10---8-8---5-5-----|
|10-9-10-----10-----10----8----------|
|----------10---------------------7--| 
|--------10--------------------------|
|------------------------------------|
|------------------------------------|

Gm               C7            F   Bb7   F

|--10-----10----8-----------------------------|
|-10---10----10------------------10-----------|
|-------------------------10---------10-------| 
|-------------------10-12---------------------|
|---------------------------------------------|
|---------------------------------------------|

    Am          E7        Am            E7     

|----------8--12--8-8-10-12-12--8---------|
|-------10------------------------10-12---|
|--10--9----------------------------------|
|-----------------------------------------|
|-----------------------------------------|
|-----------------------------------------|

  Am             E7        Am     Bb7 B7 C7

|------------12--10-8-10--12-------------|
|----10----------------------------------|
|-9--------------------------------------|
|----------------------------------------|
|----------------------------------------|
|----------------------------------------|

        F   E7  Eb7    D7          Gm9   C6  F6
|--------------10-10--8-10-8-6-8-6--5----5---------------|
|10-9-10-----10-----10----------------3------6-----------|
|----------10------------------------------5-------------| 
|--------10----------------------------------------------|
|--------------------------------------------------------|
|--------------------------------------------------------|

            
            
Suggest correction
Creating personal tab
Creating personal tab
You can edit any tab online and save it as your Personal.

You can edit, replace or remove any tab part or add personal notes – all changes will be seen only by you.

Personal tabs can be accessed anytime from any device, even offline.
Learn more »
comments
print report bad tab
guest
You may want to rate the tab now too:
select rating
Wanna post a correction for this tab? Suggest correction