Oops, an error
Loading. Please wait.
199 views 12 this week
no commentswrite comment
1 2 3 4 5
1 last vote to show rating
add to favorites
launch autoscroll
font size
0
reset
transpose
0
reset
display chords
guitar tuner
Autoscroll
slow
fast
+/-
esc
set tempo
stop
Help us to improve Ultimate-Guitar.com Take our survey!
×
Author
Difficulty
novice
Hamilton Leithauser + Rostam - "1959"
From the album "I Had a Dream That You Were Mine"

[Intro]

              C                                   Am 
e|---------3-----3-----------3-----3-----------5-----5-----------5-----5--------|
B|------5-----6-----5-----5-----6-----5-----5-----9-----5-----5-----9-----5-----|
G|---5-----------------5-----------------5-----------------5--------------------|
D|------------------------------------------------------------------------------|
A|------------------------------------------------------------------------------|
E|------------------------------------------------------------------------------|

              Dm                                  G              
e|---------5-----5-----------5-----5-----------7--12--7-----7-------------------|
B|------6-----9-----6-----6-----9-----6-----8------------8------8-----8---------|
G|---7-----------------7-----------------9-------------------------9------------|
D|------------------------------------------------------------------------------|
A|------------------------------------------------------------------------------|
E|------------------------------------------------------------------------------|


[Verse 1]

    C         Am       Dm      G
If you don't hear from me 
  C         Am        Dm     G
Tonight My Lord don't be deceived
   C           Am       
I won't always see you
               Dm          G 
When you're calling after me


[Chorus]

 C            Am
One day I'll stop to listen
Dm            G
One day I'll stop to listen

    C           Am   Dm         G
But I'd rather die, oh


[Verse 2]

C               Am
Last night the doorbell rang
Dm              G
Some kids were playing pranks
C           Am
It got me thinking of us
Dm               G
Messing around... and some other stuff

C            Am
So I rumble down your hall
Dm               G
Do you hear me through the wall?
C             Am
When my head hits the floor
Dm              G
It ain't gonna hurt me anymore


[Chorus]

 C            Am
One day I'll stop to listen
Dm            G
One day I'll stop to listen


[Verse 3]

C              Am
Golden roads, paper towns
Dm           G
Watercolor roaring hours
C                   Am
How've you been, I wish that I
       Dm               G
Could see you now just one more time


[Bridge]

C             Am
Don't trust the moonbeams
Dm              G
"Moonbeams are off the record"
C                 Am
Don't count your heartbeats
Dm                G
Your heart won't beat forever


[Verse 4]

C                 Am
Dim your lights, lock your doors
Dm                G
Don't forgive me anymore
C                  Am
Finally sleeping, blazer torn
Dm              G
Lying on your wooden floor


[Chorus]

 C            Am
One day I'll stop to listen
Dm            G
One day I'll stop to listen
 C            Am
One day I'll stop to listen
Dm            G
One day I'll stop to listen


[Bridge]

C             Am
Don't trust the moonbeams
Dm              G
"Moonbeams are off the record"
C                 Am
Don't count your heartbeats
Dm                G
Your heart won't beat forever


[Chorus]

 C            Am
One day I'll stop to listen
Dm            G
One day I'll stop to listen
 C            Am
One day I'll stop to listen
Dm            G
One day I'll stop to listen
Suggest correction
Give kudos to tab author, rate the tab!
1 2 3 4 5
comments
print report bad tab
guest
You may want to rate the tab now too:
select rating
Wanna post a correction for this tab? Suggest correction