Oops, an error
Loading. Please wait.

In A Black Out Tab

73 views 73 this week
1 commentread comment
1 2 3 4 5
2 more votes to show rating
add to favorites
launch autoscroll
font size
0
reset
how to read this tab
guitar tuner
Autoscroll
slow
fast
+/-
esc
set tempo
stop
Help us to improve Ultimate-Guitar.com Take our survey!
×
Author
Difficulty
Capo
intermediate
3rd fret
      Am            C            F            E
 
e|-----0-----||-----0-----||-----0-----||-----0-----||
B|-----1-----||-----1-----||-----1-----||-----0-----||
G|-----2-----||-----0-----||-----2-----||-----1-----||
D|-----2-----||-----2-----||-----3-----||-----2-----||
A|-----0-----||-----3-----||-----0-----||-----2-----||
E|-----0-----||-----3-----||-----1-----||-----0-----||


[Intro]
 
   Am                       

e|--------------|--------------| 
B|-----1------1-|-----1------1-|
G|----2------2--|----2------2--|  x8
D|--------2-----|--------2-----|     
A|-0------------|--------------|
E|--------------|-0------------| 

[Verse 1]

    Am                             C                           F
                  I              live                  in a    name-          less
e|--------------|--------------|--------------|--------------|--------------|--------------|
B|-----1------1-|-----1------1-|-----1------1-|-----1------1-|-----1------1-|-----1------1-|
G|----2------2--|----2------2--|----0------0--|----0------0--|----2------2--|----2------2--|
D|--------2-----|--------2-----|--------2-----|--------2-----|--------3-----|--------3-----|
A|-0------------|--------------|--------------|--------------|--------------|-0------------|
E|--------------|-0------------|-3------------|-3------------|-1------------|--------------|


   Am                                          Am              C
   town                                         No             need                 to
e|--------------|--------------|--------------|--------------|--------------|--------------|
B|-----1------1-|-----1------1-|-----1------1-|-----1------1-|-----1------1-|-----1------1-|
G|----2------2--|----2------2--|----2------2--|----2------2--|----0------0--|----0------0--|
D|--------2-----|--------2-----|--------2-----|--------2-----|--------2-----|--------2-----|
A|-0------------|--------------|-0------------|--------------|--------------|--------------|
E|--------------|-0------------|--------------|-0------------|-3------------|-3------------|
  

    F                                                  Am                                      
   wander                        around                          I          
e|--------------|--------------|--------------|--------------|--------------|
B|-----1------1-|-----1------1-|-----1------1-|-----1------1-|-----1------1-|
G|----2------2--|----2------2--|----2------2--|----2------2--|----2------2--|
D|--------3-----|--------3-----|--------3-----|--------2-----|--------2-----|
A|--------------|-0------------|--------------|-0------------|--------------|
E|-1------------|--------------|-1------------|--------------|-0------------|


   C                             F                             Am             
   live                  in a    name-         -less           town..
e|--------------|--------------|--------------|--------------|--------------|--------------|
B|-----1------1-|-----1------1-|-----1------1-|-----1------1-|-----1------1-|-----1------1-|
G|----0------0--|----0------0--|----2------2--|----2------2--|----2------2--|----2------2--|
D|--------2-----|--------2-----|--------3-----|--------3-----|--------2-----|--------2-----|
A|--------------|--------------|--------------|-0------------|-0------------|--------------|
E|-3------------|-3------------|-1------------|--------------|--------------|-0------------|


    E                            F                             Am
          In a    Black-         -out 
e|--------------|--------------|--------------|--------------|--------------|--------------|
B|-----0------0-|-----0------0-|-----1------1-|-----1------1-|-----1------1-|-----1------1-|
G|----1------1--|----1------1--|----2------2--|----2------2--|----2------2--|----2------2--|    Am x3
D|--------2-----|--------2-----|--------3-----|--------3-----|--------2-----|--------2-----|
A|--------------|--------------|--------------|-0------------|-0------------|--------------|
E|-0------------|-0------------|-1------------|--------------|--------------|-0------------|


[Verse 2]

** Use the same fingerpicking pattern for each chord,only the bass line will slightly change later on **


Am   C            F         Am
Many friends have said good-bye
Am      C      F               Am
Paraded out in one proud line
Am         C        F          C      E   F   Am
I say they all just lost their minds


[Verse 3]

                         {TIP}
**The first word of each verse always starts with the low E
  string of the first chord (which is in the upbeat of the measure)**


Am  C              F       C                           __ __ __ __ __ __ __ __ __ __ __ __ __ _    
Mid-night where we used to dance                      |    From now on,                        | 
Am   C              F                                 |   he sometimes fingerpicks also the    |
Underneath the ugly halogen lamps                     |   5th string of the last "C"s,(which   |
Am     C        F       C                             |   is on the 3rd fret).                 |
Oh, it all went away so fast                          |   Let me know if you don't think       |
E    F    Am                                          |   it's the right way.                  |
In a black out                                        |__ __ __ __ __ __ __ __ __ __ __ __ __ _|     
                                                                 

[Bridge]

Am    F               
We’ll wait for the year                                          
F        C    F                                               
When the tide comes                                           
E       Am       F      C                                    
Rolling over the rails                                          
C    F                                                  
From here 'til the end                                    
F      C  F                                             
Of the is-land                                                                 
E  Am  F       C                                                 
Waaaaa-shing a-way   


[Chorus]

Am  C  F   C 

Am  C  F   F

*you can either strumm the following chords or fingerpick them. In the live version he always fingerpicks*

Am          C       F            C   
I rent a ro-om with all our stuff
Am             C       F           
When you come home I’d lift you up
Am              C   F          C
And there’s onl-y the two of us
E    F     Am
In a black out


[Verse 4]

Am         C       F           C
Now you’re sleeping in the back
Am      C   F            
Of a speedi-i-i-ing yellow cab        
Am      C        F      C      F           {I suggest you to start the last C of the last    
Throw a kiss goodbye to all of that         verse with the 5th string instead of the 6th}


[Outro]

 C    F    C    Am
Suggest correction
Give kudos to tab author, rate the tab!
1 2 3 4 5
comments
print report bad tab
1 comment total.
0 reply
maffhew 10 6 days ago

Great tab man!! Easy to follow and really accurate, five stars!

guest
You may want to rate the tab now too:
select rating
Wanna post a correction for this tab? Suggest correction