Oops, an error
Loading. Please wait.

In A Black Out tab

version 1
version 1

Whole song

  • Tab is based off the studio recorded version (http... Show more
  • This version should be pretty close to the origina... Show more
5,224 views 180 this week
5 commentsread comments
1 2 3 4 5
x 12
add to favorites
×
Save as Personal and add changes to this tab that will be seen only by you. Learn more ›
×
You can save this tab as Personal to edit and correct it or add notes. All changes will be seen only by you. Learn more »
launch autoscroll
font size
0
reset
how to read this tab
guitar tuner
edit
Autoscroll
slow
fast
+/-
esc
set tempo
stop
      Am            C            F            E
 
e|-----0-----||-----0-----||-----0-----||-----0-----||
B|-----1-----||-----1-----||-----1-----||-----0-----||
G|-----2-----||-----0-----||-----2-----||-----1-----||
D|-----2-----||-----2-----||-----3-----||-----2-----||
A|-----0-----||-----3-----||-----0-----||-----2-----||
E|-----0-----||-----3-----||-----1-----||-----0-----||


[Intro]
 
   Am                       

e|--------------|--------------| 
B|-----1------1-|-----1------1-|
G|----2------2--|----2------2--|  x8
D|--------2-----|--------2-----|     
A|-0------------|--------------|
E|--------------|-0------------| 

[Verse 1]

    Am                             C                           F
                  I              live                  in a    name-          less
e|--------------|--------------|--------------|--------------|--------------|--------------|
B|-----1------1-|-----1------1-|-----1------1-|-----1------1-|-----1------1-|-----1------1-|
G|----2------2--|----2------2--|----0------0--|----0------0--|----2------2--|----0------0--|
D|--------2-----|--------2-----|--------2-----|--------2-----|--------3-----|--------2-----|
A|-0------------|--------------|--------------|--------------|--------------|-3------------|
E|--------------|-0------------|-3------------|-3------------|-1------------|--------------|


   C                                            Am             C
   town                                         No             need                 to
e|--------------|--------------|--------------|--------------|--------------|--------------|
B|-----1------1-|-----1------1-|-----1------1-|-----1------1-|-----1------1-|-----1------1-|
G|----0------0--|----0------0--|----2------2--|----2------2--|----0------0--|----0------0--|
D|--------2-----|--------2-----|--------2-----|--------2-----|--------2-----|--------2-----|
A|-3------------|--------------|-0------------|--------------|--------------|--------------|
E|--------------|-3------------|--------------|-0------------|-3------------|-3------------|
  

    F                            F                     Am                                      
   wander                        around                          I          
e|--------------|--------------|--------------|--------------|--------------|--------------|
B|-----1------1-|-----1------1-|-----1------1-|-----1------1-|-----1------1-|-----1------1-|
G|----2------2--|----0------0--|----2------2--|----0------0--|----2------2--|----2------2--|
D|--------3-----|--------2-----|--------3-----|--------2-----|--------2-----|--------2-----|
A|--------------|-3------------|--------------|-3------------|-0------------|--------------|
E|-1------------|--------------|-1------------|--------------|--------------|-0------------|


   C                             F                             C            
   live                  in a    name-         -less           town..
e|--------------|--------------|--------------|--------------|--------------|--------------|
B|-----1------1-|-----1------1-|-----1------1-|-----1------1-|-----1------1-|-----1------1-|
G|----0------0--|----0------0--|----2------2--|----0------0--|----0------0--|----0------0--|
D|--------2-----|--------2-----|--------3-----|--------2-----|--------2-----|--------2-----|
A|--------------|--------------|--------------|-3------------|-3------------|--------------|
E|-3------------|-3------------|-1------------|--------------|--------------|-3------------|


    E                            F                             Am
          In a    Black-         -out 
e|--------------|--------------|--------------|--------------|--------------|--------------|
B|-----0------0-|-----0------0-|-----1------1-|-----1------1-|-----1------1-|-----1------1-|
G|----1------1--|----1------1--|----2------2--|----2------2--|----2------2--|----2------2--|    Am x3
D|--------2-----|--------2-----|--------3-----|--------3-----|--------2-----|--------2-----|
A|--------------|--------------|--------------|-0------------|-0------------|--------------|
E|-0------------|-0------------|-1------------|--------------|--------------|-0------------|


[Verse 2]

** Use the same fingerpicking pattern for each chord,only the bass line will slightly change later on **


Am   C            F         C
Many friends have said good-bye
Am      C      F               Am
Paraded out in one proud line
Am         C        F          C      E   F   Am
I say they all just lost their minds


[Verse 3]

                         {TIP}
**The first word of each verse always starts with the low E
  string of the first chord (which is in the upbeat of the measure)**


Am  C              F       C                           __ __ __ __ __ __ __ __ __ __ __ __ __ _    
Mid-night where we used to dance                      |    From now on,                        | 
Am   C              F                                 |   he sometimes fingerpicks also the    |
Underneath the ugly halogen lamps                     |   5th string of the last "C"s,(which   |
Am     C        F       C                             |   is on the 3rd fret).                 |
Oh, it all went away so fast                          |   Let me know if you don't think       |
E    F    Am                                          |   it's the right way.                  |
In a black out                                        |__ __ __ __ __ __ __ __ __ __ __ __ __ _|     
                                                                 

[Bridge]

Am    F               
We’ll wait for the year                                          
F        C    F                                               
When the tide comes                                           
E       Am       F      C                                    
Rolling over the rails                                          
C    F                                                  
From here 'til the end                                    
F      C  F                                             
Of the is-land                                                                 
E  Am  F       C                                                 
Waaaaa-shing a-way   


[Chorus]

Am  C  F   C 

Am  C  F   F

*you can either strumm the following chords or fingerpick them. In the live version he always fingerpicks*

Am          C       F            C   
I rent a ro-om with all our stuff
Am             C       F           
When you come home I’d lift you up
Am              C   F          C
And there’s onl-y the two of us
E    F     Am
In a black out


[Verse 4]

Am         C       F           C
Now you’re sleeping in the back
Am      C   F            
Of a speedi-i-i-ing yellow cab        
Am      C        F      C      F           {I suggest you to start the last C of the last    
Throw a kiss goodbye to all of that         verse with the 5th string instead of the 6th}


[Outro]

 C    F    C    Am

            
            
Suggest correction
Creating personal tab
Creating personal tab
You can edit any tab online and save it as your Personal.

You can edit, replace or remove any tab part or add personal notes – all changes will be seen only by you.

Personal tabs can be accessed anytime from any device, even offline.
Learn more »
comments
print report bad tab
5 comments total. Showing first comments.
+1 reply
maffhew 10 Nov 29, 2016 03:01 PM

Great tab man!! Easy to follow and really accurate, five stars!

+1 reply
mattsn 12 Dec 09, 2016 03:14 AM

I think the verse chord progression might be slightly different. Your tab really helped me with this though, much appreciated!

I live in a name- less
Am Am C C F F

town No need to
C C Am Am C C

wan der a round I
F F F F Am Am

live in a name- -less town
C C F F C C

In a Black- -out
E E F F Am Am

0 reply
loll3r796 55 Dec 10, 2016 06:27 AM

Thank you, i'm glad it helped you!
I re-watched and listened the song, and yes, you're totally right, i'm going to correct it right away.
Thanks a lot mate!

guest
You may want to rate the tab now too:
select rating
Wanna post a correction for this tab? Suggest correction