Oops, an error
Loading. Please wait.

In A Black Out tab

version 2
version 2

Whole song

  • Tab is based off the studio recorded version (http... Show more
  • This version should be pretty close to the origina... Show more
100 views 6 this week
no commentswrite comment
1 2 3 4 5
3 more votes to show rating
add to favorites
×
Save as Personal and add changes to this tab that will be seen only by you. Learn more ›
×
You can save this tab as Personal to edit and correct it or add notes. All changes will be seen only by you. Learn more »
launch autoscroll
font size
0
reset
how to read this tab
guitar tuner
edit
Autoscroll
slow
fast
+/-
esc
set tempo
stop
Capo on 3rd fret (although you could barré the whole song if you wanted to)
  
| ^   Strum up
| v   Strum down 

[Intro]
e|-------------------------|-------------------------|-------------------------|-------------------------|
B|-----1-----1-----1-----1-|-----1-----1-----1-----1-|-----1-----1-----1-----1-|-----1-----1-----1-----1-|
G|---2-----2-----2-----2---|---2-----2-----2-----2---|---2-----2-----2-----2---|---2-----2-----2-----2---|
D|-------2-----------2-----|-------2-----------2-----|-------2-----------2-----|-------2-----------2-----|
A|-0-----------------------|-0-----------------------|-0-----------------------|-0-----------------------|
E|-------------0-----------|-------------0-----------|-------------0-----------|-------------0-----------|

e|-------------------------|-------------------------|-------------------------|-------------------------|
B|-----1-----1-----1-----1-|-----1-----1-----1-----1-|-----1-----1-----1-----1-|-----1-----1-----1-----1-|
G|---2-----2-----2-----2---|---2-----2-----2-----2---|---2-----2-----2-----2---|---2-----2-----2-----2---|
D|-------2-----------2-----|-------2-----------2-----|-------2-----------2-----|-------2-----------2-----|
A|-0-----------------------|-0-----------------------|-0-----------------------|-0-----------------------|
E|-------------0-----------|-------------0-----------|-------------0-----------|-------------0-----------|


[Verse 1]  
(I live in a nameless town (...))
e|-------------------------|-------------------------|-------------------------|-------------------------|
B|-----1-----1-----1-----1-|-----1-----1-----1-----1-|-----1-----1-----1-----1-|-----1-----1-----1-----1-|
G|---2-----2-----2-----2---|---0-----0-----0-----0---|---2-----2-----2-----2---|---2-----0-----0-----0---|
D|-------2-----------2-----|-------2-----------2-----|-------3-----------3-----|-------2-----------2-----|
A|-0-----------------------|-------------------------|-------------3-----------|-3-----------------------|
E|-------------0-----------|-3-----------3-----------|-1-----------------------|-------------3-----------|

e|-------------------------|-------------------------|-------------------------|-------------------------|
B|-----1-----1-----1-----1-|-----1-----1-----1-----1-|-----1-----1-----1-----1-|-----1-----1-----1-----1-|
G|---2-----2-----2-----2---|---0-----0-----0-----0---|---2-----2-----2-----2---|---2-----2-----2-----2---|
D|-------2-----------2-----|-------2-----------2-----|-------3-----------3-----|-------3-----------3-----|
A|-0-----------------------|-------------------------|-------------3-----------|-------------3-----------|
E|-------------0-----------|-3-----------3-----------|-1-----------------------|-1-----------------------|

e|-------------------------|-------------------------|-------------------------|-------------------------|
B|-----1-----1-----1-----1-|-----1-----1-----1-----1-|-----1-----1-----1-----1-|-----1-----1-----1-----1-|
G|---2-----2-----2-----2---|---0-----0-----0-----0---|---2-----2-----2-----2---|---0-----0-----0-----0---|
D|-------2-----------2-----|-------2-----------2-----|-------3-----------3-----|-------2-----------2-----|
A|-0-----------------------|-------------------------|-------------3-----------|-3-----------------------|
E|-------------0-----------|-3-----------3-----------|-1-----------------------|-------------3-----------|

e|-------------------------|-------------------------|-------------------------|-------------------------|
B|-----0-----0-----0-----0-|-----1-----1-----1-----1-|-----1-----1-----1-----1-|-----1-----1-----1-----1-|
G|---1-----1-----1-----1---|---2-----2-----2-----2---|---2-----2-----2-----2---|---2-----2-----2-----2---| 
D|-------2-----------2-----|-------2-----------3-----|-------2-----------2-----|-------2-----------2-----|
A|-------------------------|-------------3-----------|-0-----------------------|-0-----------------------|
E|-0-----------0-----------|-1-----------------------|-------------0-----------|-------------0-----------|

e|-------------------------|---------------------------|
B|-----1-----1-----1-----1-|-----1-----1-----1-----1---|
G|---2-----2-----2-----2---|---2-----2-----2-----2-----|
D|-------2-----------2-----|-------2-----------2-------|
A|-0-----------------------|-0-------------------------|
E|-------------0-----------|-------------0-------------|

[Verse 2]   
(Many friends have said goodbye (...)
e|-------------------------|-------------------------|-------------------------|-------------------------|
B|-----1-----1-----1-----1-|-----1-----1-----1-----1-|-----1-----1-----1-----1-|-----1-----1-----1-----1-|
G|---2-----2-----2-----2---|---0-----0-----0-----0---|---2-----2-----2-----2---|---2-----0-----0-----0---|
D|-------2-----------2-----|-------2-----------2-----|-------3-----------3-----|-------2-----------2-----|
A|-0-----------------------|-------------------------|-------------3-----------|-3-----------------------|
E|-------------0-----------|-3-----------3-----------|-1-----------------------|-------------3-----------|

e|-------------------------|-------------------------|-------------------------|-------------------------|
B|-----1-----1-----1-----1-|-----1-----1-----1-----1-|-----1-----1-----1-----1-|-----1-----1-----1-----1-|
G|---2-----2-----2-----2---|---0-----0-----0-----0---|---2-----2-----2-----2---|---2-----2-----2-----2---|
D|-------2-----------2-----|-------2-----------2-----|-------3-----------3-----|-------3-----------3-----|
A|-0-----------------------|-------------------------|-------------3-----------|-------------3-----------|
E|-------------0-----------|-3-----------3-----------|-1-----------------------|-1-----------------------|

e|-------------------------|-------------------------|-------------------------|-------------------------|
B|-----1-----1-----1-----1-|-----1-----1-----1-----1-|-----1-----1-----1-----1-|-----1-----1-----1-----1-|
G|---2-----2-----2-----2---|---0-----0-----0-----0---|---2-----2-----2-----2---|---0-----0-----0-----0---|
D|-------2-----------2-----|-------2-----------2-----|-------3-----------3-----|-------2-----------2-----|
A|-0-----------------------|-------------------------|-------------3-----------|-3-----------------------|
E|-------------0-----------|-3-----------3-----------|-1-----------------------|-------------3-----------|

e|-------------------------|-------------------------|-------------------------|-------------------------|
B|-----0-----0-----0-----0-|-----1-----1-----1-----1-|-----1-----1-----1-----1-|-----1-----1-----1-----1-|
G|---1-----1-----1-----1---|---2-----2-----2-----2---|---2-----2-----2-----2---|---2-----2-----2-----2---| 
D|-------2-----------2-----|-------2-----------3-----|-------2-----------2-----|-------2-----------2-----|
A|-------------------------|-------------3-----------|-0-----------------------|-0-----------------------|
E|-0-----------0-----------|-1-----------------------|-------------0-----------|-------------0-----------|

e|-------------------------|-------------------------|
B|-----1-----1-----1-----1-|-----1-----1-----1-----1-|
G|---2-----2-----2-----2---|---2-----2-----2-----2---|
D|-------2-----------2-----|-------2-----------2-----|
A|-0-----------------------|-0-----------------------|
E|-------------0-----------|-------------0-----------|

[Verse 3]   
(Midnight where we used to dance (...)
e|-------------------------|-------------------------|-------------------------|-------------------------|
B|-----1-----1-----1-----1-|-----1-----1-----1-----1-|-----1-----1-----1-----1-|-----1-----1-----1-----1-|
G|---2-----2-----2-----2---|---0-----0-----0-----0---|---2-----2-----2-----2---|---2-----0-----0-----0---|
D|-------2-----------2-----|-------2-----------2-----|-------3-----------3-----|-------2-----------2-----|
A|-0-----------------------|-------------------------|-------------3-----------|-3-----------------------|
E|-------------0-----------|-3-----------3-----------|-1-----------------------|-------------3-----------|

e|-------------------------|-------------------------|-------------------------|-------------------------|
B|-----1-----1-----1-----1-|-----1-----1-----1-----1-|-----1-----1-----1-----1-|-----1-----1-----1-----1-|
G|---2-----2-----2-----2---|---0-----0-----0-----0---|---2-----2-----2-----2---|---2-----2-----2-----2---|
D|-------2-----------2-----|-------2-----------2-----|-------3-----------3-----|-------3-----------3-----|
A|-0-----------------------|-------------------------|-------------3-----------|-------------3-----------|
E|-------------0-----------|-3-----------3-----------|-1-----------------------|-1-----------------------|

e|-------------------------|-------------------------|-------------------------|-------------------------|
B|-----1-----1-----1-----1-|-----1-----1-----1-----1-|-----1-----1-----1-----1-|-----1-----1-----1-----1-|
G|---2-----2-----2-----2---|---0-----0-----0-----0---|---2-----2-----2-----2---|---0-----0-----0-----0---|
D|-------2-----------2-----|-------2-----------2-----|-------3-----------3-----|-------2-----------2-----|
A|-0-----------------------|-------------------------|-------------3-----------|-3-----------------------|
E|-------------0-----------|-3-----------3-----------|-1-----------------------|-------------3-----------|

e|-------------------------|-------------------------|-------------------------|-------------------------|
B|-----0-----0-----0-----0-|-----1-----1-----1-----1-|-----1-----1-----1-----1-|-----1-----1-----1-----1-|
G|---1-----1-----1-----1---|---2-----2-----2-----2---|---2-----2-----2-----2---|---2-----2-----2-----2---| 
D|-------2-----------2-----|-------2-----------3-----|-------2-----------2-----|-------2-----------2-----|
A|-------------------------|-------------3-----------|-0-----------------------|-0-----------------------|
E|-0-----------0-----------|-1-----------------------|-------------0-----------|-------------0-----------|

e|-------------------------|-------------------------|
B|-----1-----1-----1-----1-|-----1-----1-----1-----1-|
G|---2-----2-----2-----2---|---2-----2-----2-----2---|
D|-------2-----------2-----|-------2-----------2-----|
A|-0-----------------------|-0-----------------------|
E|-------------0-----------|-------------0-----------|

[Bridge] 
(We’ll wait for the year (...)
e|-------------------------|-------------------------|-------------------------|-------------------------|
B|-----1-----1-----1-----1-|-----1-----1-----1-----1-|-----1-----1-----1-----1-|-----1-----1-----1-----1-|
G|---2-----2-----2-----2---|---2-----2-----2-----2---|---2-----2-----2-----2---|---2-----2-----2-----2---|
D|-------3-----------3-----|-------3-----------3-----|-------3-----------3-----|-------3-----------3-----|
A|-------------3-----------|-------------3-----------|-------------3-----------|-------------3-----------|
E|-1-----------------------|-0-----------------------|-1-----------------------|-1-----------------------|

e|-------------------------|-------------------------|-------------------------|-------------------------|
B|-----0-----0-----0-----0-|-----1-----1-----1-----1-|-----1-----1-----1-----1-|-----1-----1-----1-----1-|
G|---0-----0-----0-----0---|---0-----0-----0-----0---|---2-----2-----2-----2---|---2-----2-----2-----2---|
D|-------0-----------0-----|-------2-----------2-----|-------3-----------3-----|-------3-----------3-----|
A|-------------------------|-3-----------------------|-------------3-----------|-------------3-----------|
E|-3-----------3-----------|-------------3-----------|-1-----------------------|-1-----------------------|

e|-------------------------|-------------------------|-------------------------|-------------------------|
B|-----0-----0-----0-----0-|-----1-----1-----1-----1-|-----1-----1-----1-----1-|-----1-----1-----1-----1-|
G|---1-----1-----1-----1---|---2-----2-----2-----2---|---2-----2-----2-----2---|---2-----2-----2-----2---|
D|-------2-----------2-----|-------2-----------2-----|-------3-----------3-----|-------3-----------3-----|
A|-------------------------|-0-----------------------|-------------3-----------|-------------3-----------|
E|-0-----------0-----------|-------------0-----------|-1-----------------------|-1-----------------------|

e|-------------------------|-------------------------|-------------------------|-------------------------|
B|-----1-----1-----1-----1-|-----1-----1-----1-----1-|-----1-----1-----1-----1-|-----1-----1-----1-----1-|
G|---0-----0-----0-----0---|---0-----0-----0-----0---|---0-----0-----0-----0---|---0-----0-----0-----0---|
D|-------2-----------2-----|-------2-----------2-----|-------2-----------2-----|-------2-----------2-----|
A|-3-----------------------|-3-----------------------|-3-----------------------|-3-----------------------|
E|-------------3-----------|-------------3-----------|-------------3-----------|-------------3-----------|

e|-------------------------|-------------------------|-------------------------|-------------------------|
B|-----1-----1-----1-----1-|-----1-----1-----1-----1-|-----1-----1-----1-----1-|-----1-----1-----1-----1-|
G|---2-----2-----2-----2---|---2-----2-----2-----2---|---2-----2-----2-----2---|---2-----2-----2-----2---|
D|-------3-----------3-----|-------3-----------3-----|-------3-----------3-----|-------3-----------3-----|
A|-------------3-----------|-------------3-----------|-------------3-----------|-------------3-----------|
E|-1-----------------------|-0-----------------------|-1-----------------------|-1-----------------------|

e|-------------------------|-------------------------|-------------------------|-------------------------|
B|-----0-----0-----0-----0-|-----1-----1-----1-----1-|-----1-----1-----1-----1-|-----1-----1-----1-----1-|
G|---0-----0-----0-----0---|---0-----0-----0-----0---|---2-----2-----2-----2---|---2-----2-----2-----2---|
D|-------0-----------0-----|-------2-----------2-----|-------3-----------3-----|-------3-----------3-----|
A|-------------------------|-3-----------------------|-------------3-----------|-------------3-----------|
E|-3-----------3-----------|-------------3-----------|-1-----------------------|-1-----------------------|

e|-------------------------|-------------------------|-------------------------|-------------------------|
B|-----0-----0-----0-----0-|-----1-----1-----1-----1-|-----1-----1-----1-----1-|-----1-----1-----1-----1-|
G|---1-----1-----1-----1---|---2-----2-----2-----2---|---2-----2-----2-----2---|---2-----2-----2-----2---|
D|-------2-----------2-----|-------2-----------2-----|-------3-----------3-----|-------3-----------3-----|
A|-------------------------|-0-----------------------|-------------3-----------|-------------3-----------|
E|-0-----------0-----------|-------------0-----------|-1-----------------------|-1-----------------------|

e|-------------------------|-------------------------|-------------------------|-------------------------|
B|-----1-----1-----1-----1-|-----1-----1-----1-----1-|-----1-----1-----1-----1-|-----1-----1-----1-----1-|
G|---0-----0-----0-----0---|---0-----0-----0-----0---|---0-----0-----0-----0---|---0-----0-----0-----0---|
D|-------2-----------2-----|-------2-----------2-----|-------2-----------2-----|-------2-----------2-----|
A|-3-----------------------|-3-----------------------|-3-----------------------|-3-----------------------|
E|-------------3-----------|-------------3-----------|-------------3-----------|-------------3-----------|

[Verse 4]   
(I rent a room with all our stuff (...)
                       v       v        ^        v       v        ^        v       v        ^        v
e|-------------------------|-------------------------|-------------------------|-------------------------|
B|---------------------1---|---1--------1--------1---|---1--------1--------1---|---1--------1--------1---|
G|---------------------2---|---2--------2--------2---|---2--------2--------2---|---2--------2--------2---|
D|---------------------2---|---2--------2--------2---|---2--------2--------0---|---0--------0--------0---|
A|---------------------0---|---0--------0--------0---|---0--------0--------3---|---3--------3--------3---|
E|---------------------0---|---0--------0--------0---|---0--------0------------|-------------------------|

     v        ^        v       v        ^        v       v        ^        v       v        ^        v
e|-------------------------|-------------------------|-------------------------|-------------------------|
B|---1--------1--------1---|---1--------1--------1---|---1--------1--------1---|---1--------1--------1---|
G|---2--------2--------2---|---2--------2--------2---|---2--------2--------2---|---2--------2--------2---|
D|---0--------0--------3---|---3--------3--------3---|---3--------3--------0---|---0--------0--------0---|
A|---3--------3--------3---|---3--------3--------3---|---3--------3--------3---|---3--------3--------3---|
E|---------------------1---|---1--------1--------1---|---1--------1------------|-------------------------|

     v        ^        v       v        ^        v       v        ^        v       v        ^        v
e|-------------------------|-------------------------|-------------------------|-------------------------|
B|---1--------1--------1---|---1--------1--------1---|---1--------1--------1---|---1--------1--------1---|
G|---2--------2--------2---|---2--------2--------2---|---2--------2--------2---|---2--------2--------2---|
D|---0--------0--------2---|---2--------2--------2---|---2--------2--------0---|---0--------0--------0---|
A|---3--------3--------0---|---0--------0--------0---|---0--------0--------3---|---3--------3--------3---|
E|---------------------0---|---0--------0--------0---|---0--------0------------|-------------------------|

     v        ^        v       v        ^        v       v        ^        v       v        ^        v
e|-------------------------|-------------------------|-------------------------|-------------------------|
B|---1--------1--------1---|---1--------1--------1---|---1--------1--------1---|---1--------1--------1---|
G|---2--------2--------2---|---2--------2--------2---|---2--------2--------2---|---2--------2--------2---|
D|---0--------0--------3---|---3--------3--------3---|---3--------3--------3---|---3--------3--------3---|
A|---3--------3--------3---|---3--------3--------3---|---3--------3--------3---|---3--------3--------3---|
E|---------------------1---|---1--------1--------1---|---1--------1--------1---|---1--------1--------1---|


     v        ^        v       v        ^        v       v        ^        v       v        ^        v
e|-------------------------|-------------------------|-------------------------|-------------------------|
B|---1--------1--------1---|---1--------1--------1---|---1--------1--------1---|---1--------1--------1---|
G|---2--------2--------2---|---2--------2--------2---|---2--------2--------2---|---2--------2--------2---|
D|---3--------3--------2---|---2--------2--------2---|---2--------2--------0---|---0--------0--------0---|
A|---3--------3--------0---|---0--------0--------0---|---0--------0--------3---|---3--------3--------3---|
E|---1--------1--------0---|---0--------0--------0---|---0--------0------------|-------------------------|

     v        ^        v       v        ^        v       v        ^        v       v        ^        v
e|-------------------------|-------------------------|-------------------------|-------------------------|
B|---1--------1--------1---|---1--------1--------1---|---1--------1--------1---|---1--------1--------1---|
G|---2--------2--------2---|---2--------2--------2---|---2--------2--------2---|---2--------2--------2---|
D|---0--------0--------3---|---3--------3--------3---|---3--------3--------0---|---0--------0--------0---|
A|---3--------3--------3---|---3--------3--------3---|---3--------3--------3---|---3--------3--------3---|
E|---------------------1---|---1--------1--------1---|---1--------1------------|-------------------------|

     v        ^        v       v        ^        v       v        ^        v       v        ^        v
e|-------------------------|-------------------------|-------------------------|-------------------------|
B|---1--------1--------1---|---1--------1--------1---|---1--------1--------1---|---1--------1--------1---|
G|---2--------2--------2---|---2--------2--------2---|---2--------2--------2---|---2--------2--------2---|
D|---0--------0--------2---|---2--------2--------2---|---2--------2--------0---|---0--------0--------0---|
A|---3--------3--------0---|---0--------0--------0---|---0--------0--------3---|---3--------3--------3---|
E|---------------------0---|---0--------0--------0---|---0--------0------------|-------------------------|

     v        ^        v       v        ^        v       v        ^        v       v        ^        v
e|-------------------------|-------------------------|-------------------------|-------------------------|
B|---1--------1--------1---|---1--------1--------1---|---1--------1--------1---|---1--------1--------1---|
G|---2--------2--------2---|---2--------2--------2---|---2--------2--------2---|---2--------2--------2---|
D|---0--------0--------3---|---3--------3--------3---|---3--------3--------3---|---3--------3--------3---|
A|---3--------3--------3---|---3--------3--------3---|---3--------3--------3---|---3--------3--------3---|
E|---------------------1---|---1--------1--------1---|---1--------1--------1---|---1--------1--------1---|

(slowly fade over to this fingerpicking after the strumming)   [And there’s only the two of us (...)]

e|-------------------------|-------------------------|-------------------------|-------------------------|
B|-----1-----1-----1-----1-|-----1-----1-----1-----1-|-----1-----1-----1-----1-|-----1-----1-----1-----1-|
G|---2-----2-----2-----2---|---0-----0-----0-----0---|---2-----2-----2-----2---|---0-----0-----0-----0---|
D|-------2-----------2-----|-------2-----------2-----|-------3-----------3-----|-------2-----------2-----|
A|-0-----------------------|-------------------------|-------------3-----------|-3-----------------------|
E|-------------0-----------|-3-----------3-----------|-1-----------------------|-------------3-----------|

e|-------------------------|-------------------------|-------------------------|-------------------------|
B|-----0-----0-----0-----0-|-----1-----1-----1-----1-|-----1-----1-----1-----1-|-----1-----1-----1-----1-|
G|---1-----1-----1-----1---|---2-----2-----2-----2---|---2-----2-----2-----2---|---2-----2-----2-----2---| 
D|-------2-----------2-----|-------2-----------3-----|-------2-----------2-----|-------2-----------2-----|
A|-------------------------|-------------3-----------|-0-----------------------|-0-----------------------|
E|-0-----------0-----------|-1-----------------------|-------------0-----------|-------------0-----------|

e|-------------------------|-------------------------|
B|-----1-----1-----1-----1-|-----1-----1-----1-----1-|
G|---2-----2-----2-----2---|---2-----2-----2-----2---|
D|-------2-----------2-----|-------2-----------2-----|
A|-0-----------------------|-0-----------------------|
E|-------------0-----------|-------------0-----------|

[Verse 5]   
(Now you’re sleeping in the back (...)
e|-------------------------|-------------------------|-------------------------|-------------------------|
B|-----1-----1-----1-----1-|-----1-----1-----1-----1-|-----1-----1-----1-----1-|-----1-----1-----1-----1-|
G|---2-----2-----2-----2---|---0-----0-----0-----0---|---2-----2-----2-----2---|---2-----0-----0-----0---|
D|-------2-----------2-----|-------2-----------2-----|-------3-----------3-----|-------2-----------2-----|
A|-0-----------------------|-------------------------|-------------3-----------|-3-----------------------|
E|-------------0-----------|-3-----------3-----------|-1-----------------------|-------------3-----------|

e|-------------------------|-------------------------|-------------------------|-------------------------|
B|-----1-----1-----1-----1-|-----1-----1-----1-----1-|-----1-----1-----1-----1-|-----1-----1-----1-----1-|
G|---2-----2-----2-----2---|---0-----0-----0-----0---|---2-----2-----2-----2---|---2-----2-----2-----2---|
D|-------2-----------2-----|-------2-----------2-----|-------3-----------3-----|-------3-----------3-----|
A|-0-----------------------|-------------------------|-------------3-----------|-------------3-----------|
E|-------------0-----------|-3-----------3-----------|-1-----------------------|-1-----------------------|

e|-------------------------|-------------------------|-------------------------|-------------------------|
B|-----1-----1-----1-----1-|-----1-----1-----1-----1-|-----1-----1-----1-----1-|-----1-----1-----1-----1-|
G|---2-----2-----2-----2---|---0-----0-----0-----0---|---2-----2-----2-----2---|---0-----0-----0-----0---|
D|-------2-----------2-----|-------2-----------2-----|-------3-----------3-----|-------2-----------2-----|
A|-0-----------------------|-------------------------|-------------3-----------|-3-----------------------|
E|-------------0-----------|-3-----------3-----------|-1-----------------------|-------------3-----------|

e|-------------------------|-------------------------|
B|-----1-----1-----1-----1-|-----1-----1-----1-----1-|
G|---2-----2-----2-----2---|---0-----0-----0-----0---|
D|-------3-----------3-----|-------2-----------2-----|
A|-------------3-----------|-3-----------------------|
E|-1-----------------------|-------------3-----------|

[Outro]

e|-------------------------|-------------------------|-------------------------|-------------------------|
B|-----1-----1-----1-----1-|-----1-----1-----1-----1-|-----1-----1-----1-----1-|-----1-----1-----1-----1-|
G|---2-----2-----2-----2---|---2-----2-----2-----2---|---2-----2-----2-----2---|---2-----2-----2-----2---|
D|-------2-----------2-----|-------2-----------2-----|-------2-----------2-----|-------2-----------2-----|
A|-0-----------------------|-0-----------------------|-0-----------------------|-0-----------------------|
E|-------------0-----------|-------------0-----------|-------------0-----------|-------------0-----------|

(let this final note ring out)
e|-------------------------|
B|-------------------------|
G|-------------------------|
D|-------------------------|
A|-0-----------------------|
E|-------------------------|

            
            
Suggest correction
Creating personal tab
Creating personal tab
You can edit any tab online and save it as your Personal.

You can edit, replace or remove any tab part or add personal notes – all changes will be seen only by you.

Personal tabs can be accessed anytime from any device, even offline.
Learn more »
Give kudos to tab author, rate the tab!
1 2 3 4 5
comments
print report bad tab
guest
You may want to rate the tab now too:
select rating
Wanna post a correction for this tab? Suggest correction