Oops, an error
Loading. Please wait.

A Legend Reborn Tab

version 2
version 2

Intro

Whole song

Interactive

1,727 views 1 this week
no commentswrite comment
1 2 3 4 5
please rate
add to favorites
launch autoscroll
font size
0
reset
how to read this tab
guitar tuner
Autoscroll
slow
fast
+/-
esc
set tempo
stop
Help us to improve Ultimate-Guitar.com Take our survey!
×
Difficulty
novice
INTRO OF A LEGEND REBORN BY HAMMERFALL
TABBED BY JONAS

about me- I'm just a HammerFall fan that plays GuildWars and does all the other stuff 
teenagers do...

standard tuning
----------------|----------------|
----10----------|----------------|
--9----9-10-7-9-|-------------9--|
----------------|-9-10-7-9-10----|
----------------|----------------|
----------------|----------------|

----------------|-----------------|
----10----------|-----------------|
--9----9-10-7-9-|-----------------|
----------------|-9-10-7-9-10-9-7-|
----------------|-----------------|
----------------|-----------------|

This is as close as I could get to the real thing, it was made using trial and error, enjoy it :D
Suggest correction
Give kudos to tab author, rate the tab!
1 2 3 4 5
comments
print report bad tab
guest
You may want to rate the tab now too:
select rating
Please do not post tabs as comments. Select "correction" instead!