Oops, an error
Loading. Please wait.

At The End Of The Rainbow Bass Tab

version 2
version 2

Whole song

Interactive

1,566 views 1 this week
no commentswrite comment
1 2 3 4 5
please rate
add to favorites
launch autoscroll
font size
0
reset
guitar tuner
Autoscroll
slow
fast
+/-
esc
set tempo
stop
Help us to improve Ultimate-Guitar.com Take our survey!
×
Author
Tuning
D# G# C# F# A# D#
#----------------------------------PLEASE NOTE---------------------------------#
#This file is the author's own work and represents their interpretation of the #
#song. You may only use this file for private study, scholarship, or research. #
#------------------------------------------------------------------------------#

AT THE END OF THE RAINBOW (Bassline)
As recorded by HammerFall
(From the 1998 Album LEGACY OF KINGS)


Transcribed by Oliver Löffler

 

 

Gtr I (Eb Ab Db Gb) - 'Bass'


 Intro
  Q=95
 4/4
  Gtr I
  H    Q   Q     E S S S S S S S S S S S S S S   S S S S S S S S S S S S E E
|--------------|-------------------------------|-----------------------------|
|--------------|-------------------------------|-----------------------------|
|--------------|-------------------------------|---------------------------5-|
|---------12\--|-0-0-0-0---0-0-0---0-0-0---0-0-|-0---0-0-0---0-0-0---0-0-0---|


  E S S S S S S S S S S S S S S   S S S S S S S S S S E E S S
|-------------------------------|-----------------------------|
|-------------------------------|-----------------------------|
|-7-----------------------------|-----------------------------|
|---0-0-0---0-0-0---0-0-0---0-0-|-0---0-0-0---0-0-0-2-3-5-3-2-|


    E S S S S S S S S S S S S S S
||--------------------------------|
||o-------------------------------|
||o---------------5-7-------------|
||--0-0-0-0---0-0-----0-0-0---0-0-|


 1.                                  2.
  S S S S S S S S S S S S S S S S     S S S S S S S S S S E E S S
|----------------------------------||-------------------------------|
|---------------------------------o||-------------------------------|
|---------------------------------o||-5-7---------------------------|
|-0---0-0-0---0-0-0---0-0-0---0-0--||-----0-0-0---0-0-0-2-3-5-3-2---|


 Verse
  $
  S S S S S S S S S S S S S S S S   S S S S S S S S S S S S S S S S
|---------------------------------|---------------------------------|
|---------------------------------|---------------------------------|
|-----------------5-7-------------|---------------------------------|
|-0---0-0-0---0-0-----0-0-0---0-0-|-0---0-0-0---0-0-0---0-0-0---0-0-|


  S S S S S S S S S S S S S S S S   S S S S S S S S S S E E S S
|---------------------------------|-----------------------------|
|---------------------------------|-----------------------------|
|---------------------------------|-----------------------------|
|-3---3-3-3---3-3-2---2-2-2---2-2-|-0---0-0-0---0-0-0-2-3-5-3-2-|


  S S S S S S S S S S S S S S S S   S S S S S S S S S S E E S S
|---------------------------------|-----------------------------|
|---------------------------------|-----------------------------|
|-----------------5-7-------------|-5-7-------------------------|
|-0---0-0-0---0-0-----0-0-0---0-0-|-----0-0-0---0-0-0-2-3-5-3-2-|


  S S S S S S S S S S S S S S S S   S S S S S S S S S S S S S S S S
|---------------------------------|---------------------------------|
|---------------------------------|---------------------------------|
|---------------------------------|---------------------------------|
|-3---3-3-3---3-3-2---2-2-2---2-2-|-0---0-0-0---0-0-0---0-0-0---0-0-|


  S S S S S S S S S S S S S S S S   S S S S S S S S S S S S S S S S
|---------------------------------|---------------------------------|
|---------------------------------|---------------------------------|
|---------------------------------|-----------------5-7-------------|
|-5---5-5-5---5-5-5---5-5-5---5-5-|-0---0-0-0---0-0-----0-0-0---0-0-|


  S S S S S S S S S S S S S S S S   S S S S S S S S S S S S E E
|---------------------------------|-----------------------------||
|---------------------------------|-----------------------------||
|-3---3-3-3---3-3-----------------|-2---2-2-2---2-2-2-3-2-0-2---||
|-----------------3---3-3-3---3-3-|-----------------------------||


   Chorus
    $$
    S S S S S S S S S S S S S S S S   S S S S S S S S S S S S S S S S
||----------------------------------|---------------------------------|
||o---------------------------------|---------------------------------|
||o---------------------------------|-3---3-3-3---3-3-----------------|
||--0---0-0-0---0-0-0---0-0-0---0-0-|-----------------3---3-3-3---3-3-|


                                                           To Coda
  S S S S S S S S S S S S S S S S   S S S S S S S S S S S S S S S S
|---------------------------------|----------------------------------||
|---------------------------------|---------------------------------o||
|-0---0-0-0---0-0-----------------|---------------------------------o||
|-----------------0---0-0-0---0-0-|-3---3-3-3---3-3-2---2-2-2---3-2--||


                                                  D.S.
  S S S S S S S S S S S S S S S S   S S S S S S S S H
|---------------------------------|-----------------------||
|---------------------------------|-----------------------||
|-0---0-0-0---0-0-0---0-0-0---0-0-|-----------------------||
|---------------------------------|-3---3-3-3---3-3-------||


 Interlude
  S S E S S E S S E S S E   S S E S S E S S E E E
|-------------------------|-----------------------|
|-------------------------|-----------------------|
|-------------------------|-----------------------|
|-2-----2-----2-----2-----|-2-----2-----2-----2-5-|


  S S E S S E S S E S S E   S S E E S S E E E E
|-------------------------|-----------------------|
|-------------------------|-----------------------|
|-------------------------|-------------2-0-------|
|-2-----2-----2-----2-----|-2-----2-2-2-----2-0---|


   Guitar Solo
    S S E S S E S S E S S E   S S E S S E S S E S S E
||--------------------------|--------------------------||
||o-------------------------|-------------------------o||
||o-------------------------|-------------------------o||
||--2-----2-----2-----2-----|-2-----2-----2-----2------||


  E E E E E E E E   E E E E E E E E   E E E E E E E E   E E E E E E E E
|-----------------|-----------------|-----------------|------------------|
|-----------------|-----------------|-----------------|------------------|
|-----------------|-----------------|---------------3-|------------------|
|-5-5-5-5-5-5-5-3-|-5-5-5-5-5-5-5-5-|-5-5-5-5-5-5-5---|-5-5-5-5-5-3-1-0--|


 Bridge
  S S S S S S S S S S S S S S S S   S S S S S S S S S S S S S S S S
|---------------------------------|---------------------------------|
|---------------------------------|---------------------------------|
|-5---5-5-5---5-5-5---5-5-5---5-5-|-1---1-1-1---1-1-1---1-1-1---1-1-|
|---------------------------------|---------------------------------|


  S S S S S S S S S S S S S S S S   S S S S S S S S S S S S S S S S
|---------------------------------|---------------------------------|
|---------------------------------|---------------------------------|
|-5---5-5-5---5-5-----------------|-3---3-3-3---3-3-----------------|
|-----------------1---1-1-1---1-1-|-----------------3---3-3-3---3-3-|


  S S S S S S S S S S S S S S S S   S S S S S S S S S S S S S S S S
|---------------------------------|---------------------------------|
|---------------------------------|---------------------------------|
|-5---5-5-5---5-5-5---5-5-5---5-5-|-1---1-1-1---1-1-1---1-1-1---1-1-|
|---------------------------------|---------------------------------|


                                                    D.S.S. al Coda
  S S S S S S S S S S S S S S S S   S S S S S S S S S S S S S S S S
|---------------------------------|---------------------------------||
|---------------------------------|---------------------------------||
|---------------------------------|-3---3-3-3---3-3-----------------||
|-1---1-1-1---1-1-3---3-3-3---3-3-|-----------------5---5-5-5---5-5-||


 Out-Chorus
  &
  S S S S S S S S S S S S S S S S   S S S S S S S S S S S S S S S S
|---------------------------------|---------------------------------|
|---------------------------------|---------------------------------|
|---------------------------------|-5---5-5-5---5-5-----------------|
|-2---2-2-2---2-2-2---2-2-2---2-2-|-----------------5---5-5-5---5-5-|


  S S S S S S S S S S S S S S S S   S S S S S S S S S S S S S S S S
|---------------------------------|---------------------------------|
|---------------------------------|---------------------------------|
|-2---2-2-2---2-2-----------------|---------------------------------|
|-----------------2---2-2-2---2-2-|-5---5-5-5---5-5-4---4-4-4---5-4-|


  S S S S S S S S S S S S S S S S   S S S S S S S S S S S S S S S S
|---------------------------------|---------------------------------|
|---------------------------------|-0---0-0-0---0-0-----------------|
|---------------------------------|-----------------0---0-0-0---0-0-|
|-2---2-2-2---2-2-2---2-2-2---2-2-|---------------------------------|


  S S S S S S S S S S S S S S S S   S S S S S S S S E E E E
|---------------------------------|--------------------------|
|---------------------------------|--------------------------|
|-2---2-2-2---2-2-----------------|-0---0-0-0---0-0-2-0------|
|-----------------2---2-2-2---2-2-|---------------------2-0--|


 Outro
  S S E S S E S S E S S E   S S E S S E S S E E E   S S E S S E S S E S S E
|-------------------------|-----------------------|--------------------------|
|-------------------------|-----------------------|--------------------------|
|-------------------------|-----------------------|--------------------------|
|-2-----2-----2-----2-----|-2-----2-----2-----2-5-|-2-----2-----2-----2------|


  S S S S S S S S E E E E   E S S +Q   H
|-------------------------|-----------------*|
|-------------------------|-----------------*|
|-----------------2-------|-----------------*|
|-2-2-2-2-2-2-2-2---5-2-0-|-2---2-(2)-------*|




--------------------------------------------------------------------------------


Duration Legend
---------------
W - whole; H - half; Q - quarter; E - 8th; S - 16th; T - 32nd; X - 64th; a - acciaccatura
+ - note tied to previous; . - note dotted; .. - note double dotted
Uncapitalized letters represent notes that are staccato (1/2 duration)
Irregular groupings are notated above the duration line
Duration letters will always appear directly above the note/fret number it represents the
duration for.  Duration letters with no fret number below them represent rests.  Multi-
bar rests are notated in the form Wxn, where n is the number of bars to rest for.  Low
melody durations appear below the staff

Tablature Legend
----------------
 h   - hammer-on
 p   - pull-off
 b   - bend
 pb  - pre-bend
 r   - bend release (if no number after the r, then release immediately)
 /\  - slide into or out of (from/to "nowhere")
 s   - legato slide
 S   - shift slide
 - natural harmonic
[n]  - artificial harmonic
n(n) - tapped harmonic
 ~   - vibrato
 tr  - trill
 T   - tap
 TP  - trem. picking
 PM  - palm muting
\n/  - tremolo bar dip; n = amount to dip
 \n  - tremolo bar down
 n/  - tremolo bar up
/n\  - tremolo bar inverted dip
 =   - hold bend; also acts as connecting device for hammers/pulls
 <> - volume swell (louder/softer)
 x   - on rhythm slash represents muted slash
 o   - on rhythm slash represents single note slash

Misc Legend
-----------
 |  - bar
||  - double bar
||o - repeat start
o|| - repeat end
*|  - double bar (ending)
 :  - bar (freetime)
 $  - Segno
 &  - Coda
Tempo markers -  = BPM(8/16=s8/s16), where s8 = swing 8ths, s16 = swing 16ths

Suggest correction
What's this?
You can suggest a correction to this tab. Community and Mods will review your correction and vote to approve or reject it.
comments
We did not receive enough feedback on this tab! Please rate:
print report bad tab
1 2 3 4 5
guest
You may want to rate the tab now too:
select rating
Please do not post tabs as comments. Select "correction" instead!