Oops, an error
Loading. Please wait.
We have an official Blood Bound tab made by UG professional guitarists. Check out the tab »
×
168 views 1 this week
no commentswrite comment
1 2 3 4 5
x 10
add to favorites
×
Save as Personal and add changes to this tab that will be seen only by you. Learn more ›
×
You can save this tab as Personal to edit and correct it or add notes. All changes will be seen only by you. Learn more »
launch autoscroll
font size
0
reset
guitar tuner
edit
Autoscroll
slow
fast
+/-
esc
set tempo
stop
                                  Blood Bound                                   


                                  HammerFall

Magnus Rosén


           Intro                                               
           >           >        >                 >        >   
      S    Q     E  E  E  E  E  E     E  E  E  E  E  E  E  E   
F#||----|--------------------------|--------------------------|
C#||----|--------------------------|--------------------------|
G#||----|-----------------------3--|--L--3--3--3--3--3--3--2--|
D#||----|--0-----0--0--0--0--0-----|--------------------------|


              >        >              >       >       >          >        >   
  E  E  E  E  E  E  E  E     E  E  E  Q    E  Q       Q    E  E  E  E  E  E   
--------------------------|------------------------|-------------------------|
--------------------------|------------------------|-------------------------|
--L--2--2--2--2--2--2--3--|--L--3--3--5----5--5----|----------------------3--|
--------------------------|------------------------|--0----0--0--0--0--0-----|


              >        >                 >        >              >       >  >   
  E  E  E  E  E  E  E  E     E  E  E  E  E  E  E  E     E  E  E  Q    E  E  E   
--------------------------|--------------------------|-------------------------|
--------------------------|--------------------------|-------------------------|
--L--3--3--3--3--3--3--2--|--L--2--2--2--2--2--2--3--|--L--3--3--5----5--5-----|
--------------------------|--------------------------|----------------------0--|


  Riff A                                                  
                  >        >                 >        >   
  E      E  E  E  E  E  E  E     E  E  E  E  E  E  E  E   
------------------------------|--------------------------|
------------------------------|--------------------------|
------------------------------|--------------------------|
--L------0--0--0--0--0--0--0--|--L--0--0--0--0--3--2--0--|


              >                              >   
  E  E  E  E  E  E  E  E     H        Q.     E   
--------------------------|---------------------|
--------------------------|---------------------|
-----------------------5--|---------------------|
--L--0--0--0--0--0--0-----|------------------0--|


  Verso Riff                                                  
                      >        >                 >        >   
  E          E  E  E  E  E  E  E     E  E  E  E  E  E  E  E   
----------------------------------|--------------------------|
----------------------------------|--------------------------|
----------------------------------|--------------------------|
--L----------0--0--0--0--0--0--0--|--L--0--0--0--0--3--2--0--|


              >        >                          >   
  E  E  E  E  E  E  E  E     E  E  E  E  E  E  E  E   
--------------------------|--------------------------|
--------------------------|--------------------------|
-----------------------5--|--L--5--5--5--5--5--5-----|
--L--0--0--0--0--0--0-----|-----------------------0--|


              >        >                 >        >   
  E  E  E  E  E  E  E  E     E  E  E  E  E  E  E  E   
--------------------------|--------------------------|
--------------------------|--------------------------|
--------------------------|--------------------------|
--L--0--0--0--0--0--0--0--|--L--0--0--0--0--3--2--0--|


                       >                          >   
  E  E  E  E  E  E  E  E     E  E  E  E  E  E  E  E   
--------------------------|--------------------------|
--------------------------|--------------------------|
--------------3--3--3--2--|--L--2--2--2--2--2--2-----|
--L--0--0--0--------------|-----------------------0--|


              >        >                 >        >   
  E  E  E  E  E  E  E  E     E  E  E  E  E  E  E  E   
--------------------------|--------------------------|
--------------------------|--------------------------|
--------------------------|--------------------------|
--L--0--0--0--0--0--0--0--|--L--0--0--0--0--3--2--0--|


              >        >                          >   
  E  E  E  E  E  E  E  E     E  E  E  E  E  E  E  E   
--------------------------|--------------------------|
--------------------------|--------------------------|
-----------------------5--|--L--5--5--5--5--5--5-----|
--L--0--0--0--0--0--0-----|-----------------------0--|


              >        >                 >        >   
  E  E  E  E  E  E  E  E     E  E  E  E  E  E  E  E   
--------------------------|--------------------------|
--------------------------|--------------------------|
--------------------------|--------------------------|
--L--0--0--0--0--0--0--0--|--L--0--0--0--0--3--2--0--|


                       >                              
  E  E  E  E  E  E  E  E     E  E  E  E  E  E  E  E   
--------------------------|--------------------------|
--------------------------|--------------------------|
--------------3--3--3--2--|--L--2--2--2--2--2--2--2--|
--L--0--0--0--------------|--------------------------|


  Pre-Coro                                               
  >                                                      
  Q        E  E  E  E  E  E     E  E  E  E  E  E  E  E   
-----------------------------|--------------------------|
-----------------------------|--------------------------|
-----------------------------|--------------------------|
--3--------3--3--3--3--3--3--|--3--3--3--3--3--3--3--3--|


  >                                                    >                       
  Q    E  E  E  E  E  E     E  E  E  E  E  E  E  E     Q    E  E  E  E  E  E   
-------------------------|--------------------------|-------------------------|
-------------------------|--------------------------|-------------------------|
--5----5--5--5--5--5--5--|--5--5--5--5--5--5--5--5--|-------------------------|
-------------------------|--------------------------|--0----0--0--0--0--0--0--|


  >                         >        >        >      
  Q    E  E  E  E  E  E     E  E  E  E  E  E  E  E   
-------------------------|--------------------------|
-------------------------|--------------------------|
--3----3--3--3--3--3--3--|--5--5--5--5--5--5--5--5--|
-------------------------|--------------------------|


  Coro A                                               
                  >    >       >                   >   
  E      E  E  E  Q    Q       Q    E  E  E  E  E  E   
----------------------------|-------------------------|
----------------------------|-------------------------|
--2------2--2--2------------|----------------------3--|
------------------3----2----|--0----0--0--0--0--0-----|


                             >                   >                 >    >     
  E  E  E  E  E  E  E  E     Q    E  E  E  E  E  E     E  E  E  E  Q    Q     
--------------------------|-------------------------|------------------------|
--------------------------|-------------------------|------------------------|
--L--3--3--3--3--3--3--3--|----------------------2--|--L--2--2--2------------|
--------------------------|--3----3--3--3--3--3-----|--------------3----2----|


  >                   >                                >                   >   
  Q    E  E  E  E  E  E     E  E  E  E  E  E  E  E     Q    E  E  E  E  E  E   
-------------------------|--------------------------|-------------------------|
-------------------------|--------------------------|-------------------------|
----------------------3--|--L--3--3--3--3--3--3--3--|----------------------2--|
--0----0--0--0--0--0-----|--------------------------|--3----3--3--3--3--3-----|


           >    >       >                                              >   
  H        Q    Q       Q    E  E  E  E  E  E     E  E  E  E  E  E  E  E   
---------------------|-------------------------|--------------------------|
---------------------|-------------------------|--------------------------|
-----------2---------|-------------------------|--------------------------|
----------------3----|--0----0--0--0--0--0--0--|--0--0--0--0--0--0--0--0--|


  Verso Riff                                                  
                      >        >                 >        >   
  E          E  E  E  E  E  E  E     E  E  E  E  E  E  E  E   
----------------------------------|--------------------------|
----------------------------------|--------------------------|
----------------------------------|--------------------------|
--L----------0--0--0--0--0--0--0--|--L--0--0--0--0--3--2--0--|


              >        >                          >   
  E  E  E  E  E  E  E  E     E  E  E  E  E  E  E  E   
--------------------------|--------------------------|
--------------------------|--------------------------|
-----------------------5--|--L--5--5--5--5--5--5-----|
--L--0--0--0--0--0--0-----|-----------------------0--|


              >        >                 >        >   
  E  E  E  E  E  E  E  E     E  E  E  E  E  E  E  E   
--------------------------|--------------------------|
--------------------------|--------------------------|
--------------------------|--------------------------|
--L--0--0--0--0--0--0--0--|--L--0--0--0--0--3--2--0--|


                       >                              
  E  E  E  E  E  E  E  E     E  E  E  E  E  E  E  E   
--------------------------|--------------------------|
--------------------------|--------------------------|
--------------3--3--3--2--|--L--2--2--2--2--2--2--2--|
--L--0--0--0--------------|--------------------------|


  Pre-Coro                                               
  >                                                      
  Q        E  E  E  E  E  E     E  E  E  E  E  E  E  E   
-----------------------------|--------------------------|
-----------------------------|--------------------------|
-----------------------------|--------------------------|
--3--------3--3--3--3--3--3--|--3--3--3--3--3--3--3--3--|


  >                                                    >                       
  Q    E  E  E  E  E  E     E  E  E  E  E  E  E  E     Q    E  E  E  E  E  E   
-------------------------|--------------------------|-------------------------|
-------------------------|--------------------------|-------------------------|
--5----5--5--5--5--5--5--|--5--5--5--5--5--5--5--5--|-------------------------|
-------------------------|--------------------------|--0----0--0--0--0--0--0--|


  >                         >        >        >      
  Q    E  E  E  E  E  E     E  E  E  E  E  E  E  E   
-------------------------|--------------------------|
-------------------------|--------------------------|
--3----3--3--3--3--3--3--|--5--5--5--5--5--5--5--5--|
-------------------------|--------------------------|


  Coro A                                               
                  >    >       >                   >   
  E      E  E  E  Q    Q       Q    E  E  E  E  E  E   
----------------------------|-------------------------|
----------------------------|-------------------------|
--2------2--2--2------------|----------------------3--|
------------------3----2----|--0----0--0--0--0--0-----|


                             >                   >                 >    >     
  E  E  E  E  E  E  E  E     Q    E  E  E  E  E  E     E  E  E  E  Q    Q     
--------------------------|-------------------------|------------------------|
--------------------------|-------------------------|------------------------|
--L--3--3--3--3--3--3--3--|----------------------2--|--L--2--2--2------------|
--------------------------|--3----3--3--3--3--3-----|--------------3----2----|


  >                   >                                >                   >   
  Q    E  E  E  E  E  E     E  E  E  E  E  E  E  E     Q    E  E  E  E  E  E   
-------------------------|--------------------------|-------------------------|
-------------------------|--------------------------|-------------------------|
----------------------3--|--L--3--3--3--3--3--3--3--|----------------------2--|
--0----0--0--0--0--0-----|--------------------------|--3----3--3--3--3--3-----|


           >    >       >                                                  
  H        Q    Q       Q    E  E  E  E  E  E     E  E  E  E  E  E  E  E   
---------------------|-------------------------|--------------------------|
---------------------|-------------------------|--------------------------|
-----------2---------|-------------------------|--------------------------|
----------------3----|--0----0--0--0--0--0--0--|--0--0--0--0--0--0--0--0--|


  Riff B / Verso                                                            
  >                       >       >             >       >             >     
  Q              H        Q       Q    H        Q       Q    H        Q     
-------------------------------|---------------------|---------------------|
-------------------------------|---------------------|---------------------|
-------------------------------|---------------------|---------------------|
--2-----------------------2----|--2-------------2----|--2-------------2----|


  >                   >             >       >             >     
  W                   Q    H        Q       Q    H        Q     
-------------------|---------------------|---------------------|
-------------------|---------------------|---------------------|
-------------------|---------------------|---------------------|
--0----------------|--2-------------2----|--2-------------2----|


                                             Interludio                       
  >                >                                                          
  Q    H        E  E     W                   E          E  E  E  E  E  E  E   
----------------------|-------------------|----------------------------------|
----------------------|-------------------|----------------------------------|
----------------------|-------------------|----------------------------------|
--3----------------0--|--L----------------|--2----------2--2--2--2--2--2--2--|


  E  E  E  E  E  E  E  E     E  E  E  E  E  E  E  E   
--------------------------|--------------------------|
--------------------------|--------------------------|
--------------------------|--------------------------|
--2--2--2--2--2--2--4--4--|--0--0--0--0--0--0--0--0--|


  E  E  E  E  E  E  E  E     E  E  E  E  E  E  E  E   
--------------------------|--------------------------|
--------------------------|--------------------------|
--------------------------|--------------------------|
--0--0--0--0--0--0--0--0--|--2--2--2--2--2--2--2--2--|


                                                  >   
  E  E  E  E  E  E  E  E     E  E  E  E  E  E  E  E   
--------------------------|--------------------------|
--------------------------|--------------------------|
--------------------------|--------------------------|
--2--2--2--2--2--2--4--4--|--3--3--3--3--3--3--3--5--|


                             Solo Stefan Elmgren                    
                             >                         >        >   
  E  E  E  E  E  E  E  E     Q                   E  E  E  E  E  E   
--------------------------|----------------------------------------|
--------------------------|----------------------------------------|
--------------------------|-------------------------------------3--|
--L--5--5--5--5--5--5--5--|--0-------------------0--0--0--0--0-----|


              >        >                 >        >              >       >     
  E  E  E  E  E  E  E  E     E  E  E  E  E  E  E  E     E  E  E  Q    E  Q     
--------------------------|--------------------------|------------------------|
--------------------------|--------------------------|------------------------|
--L--3--3--3--3--3--3--2--|--L--2--2--2--2--2--2--3--|--L--3--3--5----5--5----|
--------------------------|--------------------------|------------------------|


  >          >        >                 >        >                 >        >   
  Q    E  E  E  E  E  E     E  E  E  E  E  E  E  E     E  E  E  E  E  E  E  E   
-------------------------|--------------------------|--------------------------|
-------------------------|--------------------------|--------------------------|
----------------------3--|--L--3--3--3--3--3--3--2--|--L--2--2--2--2--2--2--3--|
--0----0--0--0--0--0-----|--------------------------|--------------------------|


                           Intro Riff                                
           >       >       >               >                     >   
  E  E  E  Q    E  Q       H.           E  E     H.           E  E   
------------------------|---------------------|---------------------|
------------------------|---------------------|---------------------|
--L--3--3--5----5--5----|------------------3--|--L------------L--2--|
------------------------|--0------------L-----|---------------------|


                  >            >              >               >   
  H.           E  E     Q.     E  H           H.           E  E   
---------------------|---------------------|---------------------|
---------------------|---------------------|---------------------|
--L------------L--3--|--L------5--L--------|------------------3--|
---------------------|---------------------|--0------------L-----|


                  >                     >            >        >   
  H.           E  E     H.           E  E     Q.     H        E   
---------------------|---------------------|---------------------|
---------------------|---------------------|---------------------|
--L------------L--2--|--L------------L--3--|--L------5--------2--|
---------------------|---------------------|---------------------|


                      Coro B                                               
                                      >    >       >                   >   
  W                   E      E  E  E  Q    Q       Q    E  E  E  E  E  E   
-------------------|----------------------------|-------------------------|
-------------------|----------------------------|-------------------------|
--L----------------|--L------2--2--2------------|----------------------3--|
-------------------|------------------3----2----|--0----0--0--0--0--0-----|


                             >                   >                 >    >     
  E  E  E  E  E  E  E  E     Q    E  E  E  E  E  E     E  E  E  E  Q    Q     
--------------------------|-------------------------|------------------------|
--------------------------|-------------------------|------------------------|
--L--3--3--3--3--3--3--3--|----------------------2--|--L--2--2--2------------|
--------------------------|--3----3--3--3--3--3-----|--------------3----2----|


  >                   >                                                         
  Q    E  E  E  E  E  E     E  E  E  E  E  E  E  E     E  E  E  E  E  E  E  E   
-------------------------|--------------------------|--------------------------|
-------------------------|--------------------------|--------------------------|
----------------------3--|--L--3--3--3--3--3--3--3--|--2--2--2--2--2--2--2--2--|
--0----0--0--0--0--0-----|--------------------------|--------------------------|


              >    >       >                   >                              
  E  E  E  E  Q    Q       Q    E  E  E  E  E  E     E  E  E  E  E  E  E  E   
------------------------|-------------------------|--------------------------|
------------------------|-------------------------|--------------------------|
--2--2--2--2------------|----------------------3--|--L--3--3--3--3--3--3--3--|
--------------3----2----|--0----0--0--0--0--0-----|--------------------------|


  >                   >                 >    >       >                   >   
  Q    E  E  E  E  E  E     E  E  E  E  Q    Q       Q    E  E  E  E  E  E   
-------------------------|------------------------|-------------------------|
-------------------------|------------------------|-------------------------|
----------------------2--|--L--2--2--2------------|----------------------3--|
--3----3--3--3--3--3-----|--------------3----2----|--0----0--0--0--0--0-----|


                             Outro                       
  E  E  E  E  E  E  E  E     E     E  E  E  E  E  E  E   
--------------------------|-----------------------------|
--------------------------|-----------------------------|
--L--3--3--3--3--3--3--3--|--2-----2--2--2--2--2--2--2--|
--------------------------|-----------------------------|


              >    >                                              >    >     
  E  E  E  E  Q    Q       E  E  E  E  E  E  E  E     E  E  E  E  Q    Q     
------------------------|--------------------------|------------------------|
------------------------|--------------------------|------------------------|
--2--2--2--2------------|--2--2--2--2--2--2--2--2--|--2--2--2--2------------|
--------------3----2----|--------------------------|--------------3----2----|


                                         >    >       >                    
  E  E  E  E  E  E  E  E     E  E  E  E  Q    Q       Q.     E  H          
--------------------------|------------------------|---------------------||
--------------------------|------------------------|---------------------||
--2--2--2--2--2--2--2--2--|--2--2--2--2------------|---------------------||
--------------------------|--------------3----2----|--0------------------||




Duration Legend
---------------
W - whole
H - half
Q - quarter
E - 8th
S - 16th
T - 32nd
X - 64th
. - note dotted
|-n-|  - n-tuplets


Tablature Legend
----------------
L - tied note
x - dead note
g - grace note
(n) - ghost note
> - accentuded note
NH - natural harmonic
AH - artificial harmonic
TH - tapped harmonic
SH - semi harmonic
PH - pitch harmonic
h - hammer on
p - pull off
b - bend
br - bendRelease
pb - preBend
pbr - preBendRelease
brb - bendReleaseBend
\n/ - tremolo bar dip
\n - tremolo bar dive
-/n - tremolo bar Release up
/n\ - tremolo bar inverted dip
/n - tremolo bar return
-\n - tremolo bar Release down
S - shift slide
s - legato slide
/ -  slide into from below or out of upwards
\ -  slide into from above or out of downwards
~ - vibrato
W - wide vibrato
tr - trill
TP - tremolo picking
T - tapping
S - slap
P - pop
< - fade in
^ - brush up
v - brush down
Suggest correction
Creating personal tab
Creating personal tab
You can edit any tab online and save it as your Personal.

You can edit, replace or remove any tab part or add personal notes – all changes will be seen only by you.

Personal tabs can be accessed anytime from any device, even offline.
Learn more »
comments
print report bad tab
guest
You may want to rate the tab now too:
select rating
Wanna post a correction for this tab? Suggest correction