Oops, an error
Loading. Please wait.

Blood Bound Tab

version 3
version 3

Whole song

Interactive

5,710 views 6 this week
no commentswrite comment
1 2 3 4 5
excellent!
x 3
add to favorites
launch autoscroll
font size
0
reset
how to read this tab
guitar tuner
Autoscroll
slow
fast
+/-
esc
set tempo
stop
Help us to improve Ultimate-Guitar.com Take our survey!
×
Author
----------------------------------------------------------------------------
                            Blood Bound- Hammerfall
----------------------------------------------------------------------------
Tabbed by:IbanezDudeCK

Tuning:
Half Step Down (Eb Ab Db Gb Bb Eb)

Don't have the rythm for under the solos or under the intro lead, but other than that, I 
it's about 100% correct and the best thus far.

Intro
|--------------------------------------------------------------------------|
|--------------------------------------------------------------------------|
|-9--9-9-12-11-12-9--9-9-12-11-12-11--8--8-9-11--12--11-9-14--12-11--------|
|--------------------------------------------------------------------------|
|--------------------------------------------------------------------------|
|--------------------------------------------------------------------------|

|--------------------------------------------------------------------------|
|--------------------------------------------------------------------------|
|-9--9-9-12-11-12-9--9-9-12-11-12-11--8--8-9-11--12--11-9-14~~~~~----------|
|--------------------------------------------------------------------------|
|--------------------------------------------------------------------------|
|--------------------------------------------------------------------------|

Verse 1
|-------------------------------------------------|
|-------------------------------------------------|
|-------------------------------------------------|
|-----------------------------------------------7-|
|-2-2------2------2-2------2-5-4-2-2------2-----5-|
|-0-0-0-0--0-0-0--0-0-0-0--0-3-2-0-0-0-0--0-0-0---|
      . .    . .      . .            . .    . .

|-------------------------------------------------|
|-------------------------------------------------|
|-------------------------------------------------|
|-----------------------------------------------7-|
|-2-2------2------2-2------2-5-4-2-2------2-----5-|
|-0-0-0-0--0-0-0--0-0-0-0--0-3-2-0-0-0-0--0-0-0---|
      . .    . .      . .            . .    . .

|-------------------------------------------------|
|-------------------------------------------------|
|-------------------------------------------------|
|----------------------------------------5-----4--|
|-2-2------2------2-2------2-5-4-2-2-----3-3-3-2--|
|-0-0-0-0--0-0-0--0-0-0-0--0-3-2-0-0-0-0----------|
      . .    . .      . .            . .   . .


|-------------------------------------------------|
|-------------------------------------------------|
|-------------------------------------------------|
|-----------------------------------------------7-|
|-2-2------2------2-2------2-5-4-2-2------2-----5-|
|-0-0-0-0--0-0-0--0-0-0-0--0-3-2-0-0-0-0--0-0-0---|
      . .    . .      . .            . .    . .

|----------------------------------------------|
|----------------------------------------------|
|----------------------------------------------|
|-------------------------------------5-----4--|
|-2-2------2------2-2------2-5-4-2-2--3-3-3-2--|
|-0-0-0-0--0-0-0--0-0-0-0--0-3-2-0-0-----------|
      . .    . .      . .               . .


Pre-Chorus
|----------------------------------------------|
|----------------------------------------------|
|----------------------------------------------|
|------7---------5--4-----4-----4---4-4-4-4----|
|-5----5------5--3--2-2-2-2-2-2-2-2-2-2-2-2----|
|-3-----------3--------------------------------|
                      . .   . .   . . . . .

Chorus
|------------------------|-----------------------------------------|
|------------------------|-----------------------------------------|
|------------------------|-----------------------------------------|
|---------5------4-4-4-4-|---------5-----4-------------------------|
|-5-4-2---3--5---2-2-2-2-|-5-4-2---3--5--2---5-4-2-----------------|
|-3-2-0------3-----------|-3-2-0------3------3-2-0--(Pick Slide)---|
                 . . . .
Verse 2
|-------------------------------------------------|
|-------------------------------------------------|
|-------------------------------------------------|
|-----------------------------------------------7-|
|-2-2------2------2-2------2-5-4-2-2------2-----5-|
|-0-0-0-0--0-0-0--0-0-0-0--0-3-2-0-0-0-0--0-0-0---|
      . .    . .      . .            . .    . .

|-------------------------------------------------|
|-------------------------------------------------|
|-------------------------------------------------|
|----------------------------------------5-----4--|
|-2-2------2------2-2------2-5-4-2-2-----3-3-3-2--|
|-0-0-0-0--0-0-0--0-0-0-0--0-3-2-0-0-0-0----------|
      . .    . .      . .            . .   . .
Pre-Chorus
|----------------------------------------------|
|----------------------------------------------|
|----------------------------------------------|
|------7---------5--4-----4-----4---4-4-4-4----|
|-5----5------5--3--2-2-2-2-2-2-2-2-2-2-2-2----|
|-3-----------3--------------------------------|
                      . .   . .   . . . . .

Chorus 2
|------------------------|-----------------------------------------|
|------------------------|-----------------------------------------|
|------------------------|-----------------------------------------|
|---------5------4-4-4-4-|---------5-----4-------------------------|
|-5-4-2---3--5---2-2-2-2-|-5-4-2---3--5--2---5-4-2-----------------|
|-3-2-0------3-----------|-3-2-0------3------3-2-0--(Pick Slide)---|
                 . . . .
Bridge
|--------------------------------------------------|
|--------------------------------------------------|
|--------------------------------------------------|
|--------------------------------------------------|(x2)
|-4-----------5---4-----------5---4-----------5--2-|
|-2-2-2-2-2-2-3---2-2-2-2-2-2-3---2-2-2-2-2-2-3--0-|
    . . . . .       . . . . .       . . . . .

Solo 1:  It's played in octaves on one guitar
|-14-14\---14-14\---14-14\12-12/14-14/16-16/17-19-19-17-16-12----|
|----------------------------------------------------------------|
|-11-11\---11-11\---11-11\9---9/11-11/13-13/14-16-16-14-13-9-----|
|----------------------------------------------------------------|
|----------------------------------------------------------------|
|----------------------------------------------------------------|

|-14-14\---14-14\---14-14\12-12/14-14/16-16/17-19-19-21-22-24~~~~|
|----------------------------------------------------------------|
|-11-11\---11-11\---11-11\9---9/11-11/13-13/14-16-16-18-19-21~~~~|
|----------------------------------------------------------------|
|----------------------------------------------------------------|
|----------------------------------------------------------------|

Solo 2: Its all legato, but try picking each fretted note if you have problems or play 
12th fret on the B string instead of the 7th on the E

|-12p0h7p0h12p0h14p0h15p0h14p0h12p0h15p0h15p0h8p0h12p0h14p0h15p0h14p0h12p0|
|-------------------------------------------------------------------------|
|-------------------------------------------------------------------------|
|-------------------------------------------------------------------------|
|-------------------------------------------------------------------------|
|-------------------------------------------------------------------------|

|h14p0h14p0h7p0h12p0h14p0h15p0h14p0h12p0h15p0h15p0h14p0h12p0h17p0h17p0h17p0h15p0h14p0|
|------------------------------------------------------------------------------------|
|------------------------------------------------------------------------------------|   
 x2
|------------------------------------------------------------------------------------|
|------------------------------------------------------------------------------------|
|------------------------------------------------------------------------------------|

Solo Ending:
Guitar 1 (Stefan)
|17b19~~~~~~~~~~~~~~~~~~~~~~~~~~~~~~~~~~~~~~~~~~~~~~~~~~~~~~~~~~~~~~~~~~~~~|
|--------------------------------------------------------------------------|
|--------------------------------------------------------------------------|
|--------------------------------------------------------------------------|
|--------------------------------------------------------------------------|
|--------------------------------------------------------------------------|
|
|Guitar 2 (Oscar)
|--------------------------------------------------------------------------|
|--------------------------------------------------------------------------|
|-9--9-9-12-11-12-9--9-9-12-11-12-11--8--8-9-11--12--11-9-14--12-11--------|
|--------------------------------------------------------------------------|
|--------------------------------------------------------------------------|
|--------------------------------------------------------------------------|

|--------------------------------------------------------------------------|
|--------------------------------------------------------------------------|
|-9--9-9-12-11-12-9--9-9-12-11-12-11--8--8-9-11--12--11-9-14--12-11-11~~~--|
|--------------------------------------------------------------------------|
|--------------------------------------------------------------------------|
|--------------------------------------------------------------------------|

Final Chorus
|------------------------|-----------------------------------------|
|------------------------|-----------------------------------------|
|------------------------|-----------------------------------------|
|---------5------4-4-4-4-|---------5-------------------------------|
|-5-4-2---3--5---2-2-2-2-|-5-4-2---3--5-5-5-5-5-5-5-5-5-5-5-5------|
|-3-2-0------3-----------|-3-2-0------3-3-3-3-3-3-3-3-3-3-3-3------|
                 . . . .                . . . . . . . . . . .

|------------------------|-----------------------------------------|
|------------------------|-----------------------------------------|
|------------------------|-----------------------------------------|
|---------5------4-4-4-4-|---------5-------------------------------|
|-5-4-2---3--5---2-2-2-2-|-5-4-2---3--5-5-5-5-5-5-5-5-5-5-5-5------|
|-3-2-0------3-----------|-3-2-0------3-3-3-3-3-3-3-3-3-3-3-3------|
                 . . . .                . . . . . . . . . . .

|-----------------------------------------|
|-----------------------------------------|
|-----------------------------------------|
|---------5-------------------------------|
|-5-4-2---3--5-5-5-5-5-5-5-5-5-5-5-5-5-4--|
|-3-2-0------3-3-3-3-3-3-3-3-3-3-3-3-3-2--|
             . . . . . . . . . . . .

|-----------------------------|-------------------------------|
|-----------------------------|-------------------------------|
|-----------------------------|-------------------------------|
|-----------------------------|-------------------------------|
|-5-5-5-5-5-5-5-5-5-5-5-5-5-4-|-5-5-5-5-5-5-5-5-5-5-5-5-5-4-2-|
|-3-3-3-3-3-3-3-3-3-3-3-3-3-2-|-3-3-3-3-3-3-3-3-3-3-3-3-3-2-0-|
  . . . . . . . . . . . .       . . . . . . . . . . . .
Suggest correction new What's this?
You can suggest a correction to this tab. Community and Mods will review your correction and vote to approve or reject it.
comments
We did not receive enough feedback on this tab! Please rate:
print report bad tab
1 2 3 4 5
guest
You may want to rate the tab now too:
select rating
Please do not post tabs as comments. Select "correction" instead!