Oops, an error
Loading. Please wait.
We have an official Blood Bound tab made by UG professional guitarists. Check out the tab »
×
655 views 6 this week
no commentswrite comment
1 2 3 4 5
x 10
add to favorites
×
Save as Personal and add changes to this tab that will be seen only by you. Learn more ›
×
You can save this tab as Personal to edit and correct it or add notes. All changes will be seen only by you. Learn more »
launch autoscroll
font size
0
reset
how to read this tab
guitar tuner
edit
Autoscroll
slow
fast
+/-
esc
set tempo
stop
                                  Blood Bound                                   


                                  HammerFall


Instruments:
- G #1
- G #2
- G #3
- Voice Melody



Guitar #1:

Stefan Elmgren


           Intro                                               
                 PM PM    PM PM          PM PM PM    PM PM     
      S    Q     E  E  E  E  E  E     E  E  E  E  E  E  E  E   
D#||----|--------------------------|--------------------------|
A#||----|--------------------------|--------------------------|
F#||----|--------------------------|--------------------------|
C#||----|-----------------------5--|--L-----------5--------4--|
G#||----|--2-----------2--------3--|--L--3--3--3--3--3--3--2--|
D#||----|--0-----0--0--0--0--0-----|--------------------------|


     PM PM PM    PM PM          PM PM      PM                                  
  E  E  E  E  E  E  E  E     E  E  E  Q    E  Q       H         E   E   E  E   
--------------------------|------------------------|--------------------------|
--------------------------|------------------------|--8--------12--10--12--8--|
--------------------------|------------------------|--------------------------|
--L-----------4--------5--|--L--------7-------7----|--------------------------|
--L--2--2--2--2--2--2--3--|--L--3--3--5----5--5----|--------------------------|
--------------------------|------------------------|--------------------------|


  H         E   E   E   E     E  E.  S E  E  E   E   E   
---------------------------|----------------------------|
--L--------12--10--12--10--|--L--7-----7--8--8--10--12--|
---------------------------|----------------------------|
---------------------------|----------------------------|
---------------------------|----------------------------|
---------------------------|----------------------------|


                            Riff A                       
                                   v  PM PM    PM PM     
  E   E  E   H        E     E      E  E  E  E  E  E  E   
------------10-----------|------------------------------|
--L--10--8---------------|------------------------------|
-------------------------|------------------------------|
-------------------------|------------------------------|
----------------------2--|--L------2--------2--------2--|
----------------------0--|--L------0--0--0--0--0--0--0--|


     v  PM PM                   v  PM PM    PM PM                           
  E  E  E  E  E  E  E  E     E  E  E  E  E  E  E  E     H        Q.     E   
--------------------------|--------------------------|---------------------|
--------------------------|--------------------------|---------------------|
--------------------------|--------------------------|---------------------|
--------------------------|-----------------------7--|---------------------|
--L--2--------2--------2--|--L--2--------2--------5--|------------------2--|
--L--0--0--0--0--3--2--0--|--L--0--0--0--0--0--0-----|------------------0--|


  Verso Riff                                               
             PM PM    PM PM          v  PM PM              
  Q          E  E  E  E  E  E     E  E  E  E  E  E  E  E   
-------------------------------|--------------------------|
-------------------------------|--------------------------|
-------------------------------|--------------------------|
-------------------------------|--------------------------|
--L----------------2--------2--|--L--2--------2--------2--|
--L----------0--0--0--0--0--0--|--L--0--0--0--0--3--2--0--|


     v  PM PM    PM PM                                  PM PM    PM PM     
  E  E  E  E  E  E  E  E     H.           E  E     Q    E  E  E  E  E  E   
--------------------------|---------------------|-------------------------|
-----------------------3--|--L------------L-----|-------------------------|
-----------------------2--|--L------------L-----|-------------------------|
-----------------------0--|--L------------L-----|-------------------------|
--L--2--------2-----------|------------------2--|--L----------2--------2--|
--L--0--0--0--0--0--0-----|------------------0--|--L----0--0--0--0--0--0--|


     v  PM PM                   v  PM PM                                  
  E  E  E  E  E  E  E  E     E  E  E  E  Q.     E     H.           E  E   
--------------------------|------------------------|---------------------|
--------------------------|------------------------|---------------------|
--------------------------|------------------------|---------------------|
--------------------------|--------------5------4--|--L------------L-----|
--L--2--------2--------2--|--L--2--------3------2--|--L------------L--2--|
--L--0--0--0--0--3--2--0--|--L--0--0--0------------|------------------0--|


       PM PM    PM PM          v  PM PM                   v  PM PM    PM PM     
  Q    E  E  E  E  E  E     E  E  E  E  E  E  E  E     E  E  E  E  E  E  E  E   
-------------------------|--------------------------|--------------------------|
-------------------------|--------------------------|-----------------------3--|
-------------------------|--------------------------|-----------------------2--|
-------------------------|--------------------------|-----------------------0--|
--L----------2--------2--|--L--2--------2--------2--|--L--2--------2-----------|
--L----0--0--0--0--0--0--|--L--0--0--0--0--3--2--0--|--L--0--0--0--0--0--0-----|


                             PM PM    PM PM          v  PM PM              
  H.           E  E     Q    E  E  E  E  E  E     E  E  E  E  E  E  E  E   
---------------------|-------------------------|--------------------------|
--L------------L-----|-------------------------|--------------------------|
--L------------L-----|-------------------------|--------------------------|
--L------------L-----|-------------------------|--------------------------|
------------------2--|--L----------2--------2--|--L--2--------2--------2--|
------------------0--|--L----0--0--0--0--0--0--|--L--0--0--0--0--3--2--0--|


                                               Pre-Coro          
     v  PM PM                                                    
  E  E  E  E  Q.     E     W                   W                 
------------------------|-------------------|-------------------|
------------------------|-------------------|-------------------|
------------------------|-------------------|-------------------|
--------------5------4--|--L----------------|--5----------------|
--L--2--------3------2--|--L----------------|--5----------------|
--L--0--0--0------------|-------------------|--3----------------|


  W                   W                   W                   W                 
-------------------|-------------------|-------------------|-------------------|
-------------------|--3----------------|--L----------------|-------------------|
-------------------|--2----------------|--L----------------|-------------------|
--L----------------|--0----------------|--L----------------|--2----------------|
--L----------------|-------------------|-------------------|--2----------------|
--L----------------|-------------------|-------------------|--0----------------|


                                                 Coro A                     
                         PM PM    PM PM    PM    PM     PM PM PM            
  W                   E  E  E  E  E  E  E  E     E      E  E  E  Q    Q     
-------------------|--------------------------|----------------------------|
-------------------|--------------------------|----------------------------|
--5----------------|--------------------------|----------------------------|
--5----------------|--7--------7--------7-----|--4------4--4--4--5----4----|
--3----------------|--5--5--5--5--5--5--5--5--|--2------2--2--2--5----4----|
-------------------|--------------------------|------------------3----2----|


  H.           E  E     W                   H.           E  E   
---------------------|-------------------|---------------------|
---------------------|-------------------|---------------------|
------------------5--|--L----------------|------------------4--|
--2------------L--5--|--L----------------|--5------------L--4--|
--2------------L--3--|--L----------------|--5------------L--2--|
--0------------L-----|-------------------|--3------------L-----|


     PM PM PM                                                      
  E  E  E  E  Q    Q       H.           E  E     W                 
------------------------|---------------------|-------------------|
------------------------|---------------------|-------------------|
--L---------------------|------------------5--|--L----------------|
--L--4--4--4--5----4----|--2------------L--5--|--L----------------|
--L--2--2--2--5----4----|--2------------L--3--|--L----------------|
--------------3----2----|--0------------L-----|-------------------|


  H.           E  E     H        Q    Q       W                 
---------------------|---------------------|-------------------|
---------------------|---------------------|-------------------|
------------------4--|-----------4---------|-------------------|
--5------------L--4--|-----------4----5----|--2----------------|
--5------------L--2--|-----------2----5----|--2----------------|
--3------------L-----|----------------3----|--0----------------|


   T  T  T   T  T  T  T   T  T  T   T  T  T   T  T  T   T  T  T   T  T  T   T  T
--------------------------------------------------------------------------------
--------------------------------------------------------------------------------
--------------------------------------------------------------------------------
--------------------------------------------------------------------------------
--21-21-21S-20-20-20-19S-18-18-18S-17-17-17S-16-16-16S-15-15-15S-14-14-14S-13-13
--21-21-21S-20-20-20-19S-18-18-18S-17-17-17S-16-16-16S-15-15-15S-14-14-14S-13-13


  Verso Riff                                               
             PM PM    PM PM          v  PM PM              
  Q          E  E  E  E  E  E     E  E  E  E  E  E  E  E   
-------------------------------|--------------------------|
-------------------------------|--------------------------|
-------------------------------|--------------------------|
-------------------------------|--------------------------|
--L----------------2--------2--|--L--2--------2--------2--|
--L----------0--0--0--0--0--0--|--L--0--0--0--0--3--2--0--|


     v  PM PM    PM PM                                  PM PM    PM PM     
  E  E  E  E  E  E  E  E     H.           E  E     Q    E  E  E  E  E  E   
--------------------------|---------------------|-------------------------|
-----------------------3--|--L------------L-----|-------------------------|
-----------------------2--|--L------------L-----|-------------------------|
-----------------------0--|--L------------L-----|-------------------------|
--L--2--------2-----------|------------------2--|--L----------2--------2--|
--L--0--0--0--0--0--0-----|------------------0--|--L----0--0--0--0--0--0--|


     v  PM PM                   v  PM PM                                
  E  E  E  E  E  E  E  E     E  E  E  E  Q.     E     W                 
--------------------------|------------------------|-------------------|
--------------------------|------------------------|-------------------|
--------------------------|------------------------|-------------------|
--------------------------|--------------5------4--|--L----------------|
--L--2--------2--------2--|--L--2--------3------2--|--L----------------|
--L--0--0--0--0--3--2--0--|--L--0--0--0------------|-------------------|


  Pre-Coro                                                                      
  W                   W                   W                   W                 
-------------------|-------------------|-------------------|-------------------|
-------------------|-------------------|--3----------------|--L----------------|
-------------------|-------------------|--2----------------|--L----------------|
--5----------------|--L----------------|--0----------------|--L----------------|
--5----------------|--L----------------|-------------------|-------------------|
--3----------------|--L----------------|-------------------|-------------------|


                                             PM PM    PM PM    PM  
  W                   W                   E  E  E  E  E  E  E  E   
-------------------|-------------------|--------------------------|
-------------------|-------------------|--------------------------|
-------------------|--5----------------|--------------------------|
--2----------------|--5----------------|--7--------7--------7-----|
--2----------------|--3----------------|--5--5--5--5--5--5--5--5--|
--0----------------|-------------------|--------------------------|


  Coro A                                                               
  PM     PM PM PM                                                      
  E      E  E  E  Q    Q       H.           E  E     W                 
----------------------------|---------------------|-------------------|
----------------------------|---------------------|-------------------|
----------------------------|------------------5--|--L----------------|
--4------4--4--4--5----4----|--2------------L--5--|--L----------------|
--2------2--2--2--5----4----|--2------------L--3--|--L----------------|
------------------3----2----|--0------------L-----|-------------------|


                           PM PM PM                                  
  H.           E  E     E  E  E  E  Q    Q       H.           E  E   
---------------------|------------------------|---------------------|
---------------------|------------------------|---------------------|
------------------4--|--L---------------------|------------------5--|
--5------------L--4--|--L--4--4--4--5----4----|--2------------L--5--|
--5------------L--2--|--L--2--2--2--5----4----|--2------------L--3--|
--3------------L-----|--------------3----2----|--0------------L-----|


  W                   H.           E  E     H        Q    Q     
-------------------|---------------------|---------------------|
-------------------|---------------------|---------------------|
--L----------------|------------------4--|-----------4---------|
--L----------------|--5------------L--4--|-----------4----5----|
--L----------------|--5------------L--2--|-----------2----5----|
-------------------|--3------------L-----|----------------3----|


  W                 
-------------------|
-------------------|
-------------------|
--2----------------|
--2----------------|
--0----------------|


   T  T  T   T  T  T  T   T  T  T   T  T  T   T  T  T   T  T  T   T  T  T   T  T
--------------------------------------------------------------------------------
--------------------------------------------------------------------------------
--------------------------------------------------------------------------------
--------------------------------------------------------------------------------
--21-21-21S-20-20-20-19S-18-18-18S-17-17-17S-16-16-16S-15-15-15S-14-14-14S-13-13
--21-21-21S-20-20-20-19S-18-18-18S-17-17-17S-16-16-16S-15-15-15S-14-14-14S-13-13


  Riff B / Verso                                                            
  Q              H        Q       Q    H        Q       Q    H        Q     
-------------------------------|---------------------|---------------------|
-------------------------------|---------------------|---------------------|
-------------------------------|---------------------|---------------------|
-------------------------------|---------------------|---------------------|
--4-----------------------5----|--4-------------5----|--4-------------5----|
--2-----------------------2----|--2-------------2----|--2-------------2----|


  W                   Q    H        Q       Q    H        Q     
-------------------|---------------------|---------------------|
-------------------|---------------------|---------------------|
-------------------|---------------------|---------------------|
--2----------------|---------------------|---------------------|
--2----------------|--4-------------5----|--4-------------5----|
--0----------------|--2-------------2----|--2-------------2----|


  Q    H        E  E     H.           E   E   
----------------------|----------------------|
----------------------|----------------------|
----------------------|------------------11--|
-------------------2--|--L------------L---x--|
--5----------------2--|--L------------L---9--|
--3----------------0--|--L------------L------|


   Interludio                                                                  
   E          E   E   E   E   E   E   E      E   E  E    E   E    E   E    E   
-----------------------------------------|------------------------------------|
-----------------------------------------|------------------------------------|
--11----------L\-----11--11---L\-----11--|--11S--9--9S--11--11S--13--13S--14--|
---x----------L-------x---x---L-------x--|---x---x--x----x---x----x---x----x--|
---9----------L\------9---9---L\------9--|---9S--7--7S---9---9S--11--11S--12--|
-----------------------------------------|------------------------------------|


   Q.      E    E   Q    E     H.           E   E   
----------------------------|----------------------|
----------------------------|----------------------|
--16-------LS--14--13----9--|--L------------L--11--|
---x-------L----x---x----x--|--L------------L---x--|
--14-------LS--12--11----7--|--L------------L---9--|
----------------------------|----------------------|


   E   E   E   E   E   E   E   E      E   E  E    E   E    E   E    E   
----------------------------------|------------------------------------|
----------------------------------|------------------------------------|
--11---L\-----11--11---L\-----11--|--11S--9--9S--11--11S--13--13S--14--|
---x---L-------x---x---L-------x--|---x---x--x----x---x----x---x----x--|
---9---L\------9---9---L\------9--|---9S--7--7S---9---9S--11--11S--12--|
----------------------------------|------------------------------------|


   Q.      E    E    Q     E   
------------------------------|
------------------------------|
--16-------LS--18S--19----21--|
---x-------L----x----x-----x--|
--14-------LS--16S--17----19--|
------------------------------|


      \0/    \0/    \0/    \0/    \0/    \0/    \0/     
   S  S   S  S   S  S   S  S   S  S   S  S   S  S   E   
-------------------------------------------------------|
-------------------------------------------------------|
---L--L---L--L---L--L---L--L---L--L---L--L---L--L---L--|
---L--L---L--L---L--L---L--L---L--L---L--L---L--L---L--|
---L--L---L--L---L--L---L--L---L--L---L--L---L--L---L--|
-------------------------------------------------------|


   Solo Stefan Elmgren                                            
   S                  S S  S  S  S  S  S  S  S  S  S  S  S  S  S  
--12p-----------------0-7p-0-12p-0-14p-0-15p-0-14p-0-12p-0-15p-0-|
-----------------------------------------------------------------|
-----------------------------------------------------------------|
-----------------------------------------------------------------|
-----------------------------------------------------------------|
-----------------------------------------------------------------|


   S  S S  S  S  S  S  S  S  S  S  S  S  S  S  S  
--15p-0-8p-0-10p-0-12p-0-15p-0-14p-0-12p-0-14p-0-|
-------------------------------------------------|
-------------------------------------------------|
-------------------------------------------------|
-------------------------------------------------|
-------------------------------------------------|


   S  S  S  S  S  S  S  S  S  S  S  S  S  S  S  S  
--14p-0-10p-0-12p-0-14p-0-15p-0-14p-0-12p-0-15p-0-|
--------------------------------------------------|
--------------------------------------------------|
--------------------------------------------------|
--------------------------------------------------|
--------------------------------------------------|


   S  S  S  S  S  S  S  S  S  S  S  S  S  S  S  S  
--15p-0-14p-0-12p-0-17p-0-17p-0-17p-0-15p-0-14p-0-|
--------------------------------------------------|
--------------------------------------------------|
--------------------------------------------------|
--------------------------------------------------|
--------------------------------------------------|


   S  S S  S  S  S  S  S  S  S  S  S  S  S  S  S  
--12p-0-7p-0-12p-0-14p-0-15p-0-14p-0-12p-0-15p-0-|
-------------------------------------------------|
-------------------------------------------------|
-------------------------------------------------|
-------------------------------------------------|
-------------------------------------------------|


   S  S S  S  S  S  S  S  S  S  S  S  S  S  S  S  
--15p-0-8p-0-10p-0-12p-0-15p-0-14p-0-12p-0-14p-0-|
-------------------------------------------------|
-------------------------------------------------|
-------------------------------------------------|
-------------------------------------------------|
-------------------------------------------------|


   S  S  S  S  S  S  S  S  S  S  S  S  S  S  S  S  
--14p-0-10p-0-12p-0-14p-0-15p-0-14p-0-12p-0-15p-0-|
--------------------------------------------------|
--------------------------------------------------|
--------------------------------------------------|
--------------------------------------------------|
--------------------------------------------------|


                                                       Intro Riff         
                                                       NH                 
   S  S  S  S  S  S  S  S  S  S  S  S  S  S  S  S      W                  
--15p-0-14p-0-12p-0-17p-0-17p-0-17p-0-15p-0-14p-0-|--<>7~----------------|
--------------------------------------------------|----------------------|
--------------------------------------------------|----------------------|
--------------------------------------------------|----------------------|
--------------------------------------------------|----------------------|
--------------------------------------------------|----------------------|


   W                    W                    W                 
---L----------------|---L----------------|---L----------------|
--------------------|--------------------|--------------------|
--------------------|--------------------|--------------------|
--------------------|--------------------|--------------------|
--------------------|--------------------|--------------------|
--------------------|--------------------|--------------------|


  Q    E  E   E   E   E  E     Q    E  E   E   E   E   E   
----------------------------|-----------------------------|
--8----8--8--12--10--12--8--|--L----8--8--12--10--12--10--|
----------------------------|-----------------------------|
----------------------------|-----------------------------|
----------------------------|-----------------------------|
----------------------------|-----------------------------|


  E  E  E  E  E  E   E   E     E   E  E   Q     E   E   E   
----------------------------|------------10----------------|
--L--7--7--7--8--8--10--12--|--L--10--8--------12--10--10--|
----------------------------|------------------------------|
----------------------------|------------------------------|
----------------------------|------------------------------|
----------------------------|------------------------------|


                        Coro B                                          
                              PM PM PM                                  
   W                    E     E  E  E  Q    Q       H.           E  E   
--------------------|----------------------------|---------------------|
---L----------------|---L------------------------|---------------------|
--------------------|----------------------------|------------------5--|
--------------------|---------4--4--4--5----4----|--2------------L--5--|
--------------------|---------2--2--2--5----4----|--2------------L--3--|
--------------------|------------------3----2----|--0------------L-----|


                                               PM PM PM            
  W                   H.           E  E     E  E  E  E  Q    Q     
-------------------|---------------------|------------------------|
-------------------|---------------------|------------------------|
--L----------------|------------------4--|--L---------------------|
--L----------------|--5------------L--4--|--L--4--4--4--5----4----|
--L----------------|--5------------L--2--|--L--2--2--2--5----4----|
-------------------|--3------------L-----|--------------3----2----|


                                            PM PM PM PM PM PM PM PM  
  H.           E  E     W                   E  E  E  E  E  E  E  E   
---------------------|-------------------|--------------------------|
---------------------|-------------------|--------------------------|
------------------5--|--L----------------|--------------------------|
--2------------L--5--|--L----------------|--4--4--4--4--4--4--4--4--|
--2------------L--3--|--L----------------|--2--2--2--2--2--2--2--2--|
--0------------L-----|-------------------|--------------------------|


  PM PM PM PM                                                      
  E  E  E  E  Q    Q       H.           E  E     W                 
------------------------|---------------------|-------------------|
------------------------|---------------------|-------------------|
------------------------|------------------5--|--L----------------|
--4--4--4--4--5----4----|--2------------L--5--|--L----------------|
--2--2--2--2--5----4----|--2------------L--3--|--L----------------|
--------------3----2----|--0------------L-----|-------------------|


                           PM PM PM                                  
  H.           E  E     E  E  E  E  Q    Q       H.           E  E   
---------------------|------------------------|---------------------|
---------------------|------------------------|---------------------|
------------------4--|--L---------------------|------------------5--|
--5------------L--4--|--L--4--4--4--5----4----|--2------------L--5--|
--5------------L--2--|--L--2--2--2--5----4----|--2------------L--3--|
--3------------L-----|--------------3----2----|--0------------L-----|


                      Outro                                                
                      PM    PM PM PM PM PM PM PM    PM PM PM PM            
  W                   E     E  E  E  E  E  E  E     E  E  E  E  Q    Q     
-------------------|-----------------------------|------------------------|
-------------------|-----------------------------|------------------------|
--L----------------|-----------------------------|------------------------|
--L----------------|--4-----4--4--4--4--4--4--4--|--4--4--4--4--5----4----|
--L----------------|--2-----2--2--2--2--2--2--2--|--2--2--2--2--5----4----|
-------------------|-----------------------------|--------------3----2----|


  PM PM PM PM PM PM PM PM    PM PM PM PM              PM PM PM PM PM PM PM PM  
  E  E  E  E  E  E  E  E     E  E  E  E  Q    Q       E  E  E  E  E  E  E  E   
--------------------------|------------------------|--------------------------|
--------------------------|------------------------|--------------------------|
--------------------------|------------------------|--------------------------|
--4--4--4--4--4--4--4--4--|--4--4--4--4--5----4----|--4--4--4--4--4--4--4--4--|
--2--2--2--2--2--2--2--2--|--2--2--2--2--5----4----|--2--2--2--2--2--2--2--2--|
--------------------------|--------------3----2----|--------------------------|


  PM PM PM PM                                   
  E  E  E  E  Q    Q       Q.     E  H          
------------------------|---------------------||
------------------------|---------------------||
------------------------|---------------------||
--4--4--4--4--5----4----|--2------------------||
--2--2--2--2--5----4----|--2------------------||
--------------3----2----|--0------------------||




Guitar #2:

Oscar Dronjak


           Intro                                         
      S    H        E  E  E  E     H        E  E  E  E   
D#||----|-----------------------|-----------------------|
A#||----|-----------8--7--8-----|-----------8--7--8--7--|
F#||----|--9-----------------9--|--L--------------------|
C#||----|-----------------------|-----------------------|
G#||----|-----------------------|-----------------------|
D#||----|-----------------------|-----------------------|


  E  E.  S E  E  E  E  E     E  E  E   Q    E  Q       H        E  E  E  E   
--------------------------|-------------------------|-----------------------|
--L-----------------7--8--|--L--7-----10----8--7----|-----------8--7--8-----|
-----8-----8--9--9--------|--------9----------------|--9-----------------9--|
--------------------------|-------------------------|-----------------------|
--------------------------|-------------------------|-----------------------|
--------------------------|-------------------------|-----------------------|


  H        E  E  E  E     E  E.  S E  E  E  E  E     E  E  E   H        E   
-----------------------|--------------------------|------------------------|
-----------8--7--8--7--|--L-----------------7--8--|--L--7-----10-----------|
--L--------------------|-----8-----8--9--9--------|--------9---------------|
-----------------------|--------------------------|------------------------|
-----------------------|--------------------------|---------------------2--|
-----------------------|--------------------------|---------------------0--|


  Riff A                                                  
         v  PM PM    PM PM          v  PM PM              
  E      E  E  E  E  E  E  E     E  E  E  E  E  E  E  E   
------------------------------|--------------------------|
------------------------------|--------------------------|
------------------------------|--------------------------|
------------------------------|--------------------------|
--L------2--------2--------2--|--L--2--------2--------2--|
--L------0--0--0--0--0--0--0--|--L--0--0--0--0--3--2--0--|


     v  PM PM    PM PM                           
  E  E  E  E  E  E  E  E     H        Q.     E   
--------------------------|---------------------|
--------------------------|---------------------|
--------------------------|---------------------|
-----------------------7--|---------------------|
--L--2--------2--------5--|------------------2--|
--L--0--0--0--0--0--0-----|------------------0--|


  Verso Riff                                                  
             PM PM PM    PM PM          v  PM PM              
  E          E  E  E  E  E  E  E     E  E  E  E  E  E  E  E   
----------------------------------|--------------------------|
----------------------------------|--------------------------|
----------------------------------|--------------------------|
----------------------------------|--------------------------|
--L-------------------2--------2--|--L--2--------2--------2--|
--L----------0--0--0--0--0--0--0--|--L--0--0--0--0--3--2--0--|


     v  PM PM    PM PM                                PM PM PM    PM PM     
  E  E  E  E  E  E  E  E     H.           E  E     E  E  E  E  E  E  E  E   
--------------------------|---------------------|--------------------------|
--------------------------|---------------------|--------------------------|
--------------------------|---------------------|--------------------------|
-----------------------7--|--L------------L-----|--------------------------|
--L--2--------2--------5--|--L------------L--2--|--L-----------2--------2--|
--L--0--0--0--0--0--0-----|------------------0--|--L--0--0--0--0--0--0--0--|


     v  PM PM                   v  PM PM    PM PM                           
  E  E  E  E  E  E  E  E     E  E  E  E  E  E  E  E     H.           E  E   
--------------------------|--------------------------|---------------------|
--------------------------|--------------------------|---------------------|
--------------------------|--------------------------|---------------------|
--------------------------|--------------5--------4--|--L------------L-----|
--L--2--------2--------2--|--L--2--------3--3--3--2--|--L------------L--2--|
--L--0--0--0--0--3--2--0--|--L--0--0--0--------------|------------------0--|


     PM PM PM    PM PM          v  PM PM              
  E  E  E  E  E  E  E  E     E  E  E  E  E  E  E  E   
--------------------------|--------------------------|
--------------------------|--------------------------|
--------------------------|--------------------------|
--------------------------|--------------------------|
--L-----------2--------2--|--L--2--------2--------2--|
--L--0--0--0--0--0--0--0--|--L--0--0--0--0--3--2--0--|


     v  PM PM    PM PM                                PM PM PM    PM PM     
  E  E  E  E  E  E  E  E     H.           E  E     E  E  E  E  E  E  E  E   
--------------------------|---------------------|--------------------------|
--------------------------|---------------------|--------------------------|
--------------------------|---------------------|--------------------------|
-----------------------7--|--L------------L-----|--------------------------|
--L--2--------2--------5--|--L------------L--2--|--L-----------2--------2--|
--L--0--0--0--0--0--0-----|------------------0--|--L--0--0--0--0--0--0--0--|


     v  PM PM                   v  PM PM    PM PM                         
  E  E  E  E  E  E  E  E     E  E  E  E  E  E  E  E     W                 
--------------------------|--------------------------|-------------------|
--------------------------|--------------------------|-------------------|
--------------------------|--------------------------|-------------------|
--------------------------|--------------5--------4--|--L----------------|
--L--2--------2--------2--|--L--2--------3--3--3--2--|--L----------------|
--L--0--0--0--0--3--2--0--|--L--0--0--0--------------|-------------------|


  Pre-Coro                                                                      
  W                   W                   W                   W                 
-------------------|-------------------|-------------------|-------------------|
-------------------|-------------------|-------------------|-------------------|
-------------------|-------------------|--7----------------|--L----------------|
--5----------------|--L----------------|--7----------------|--L----------------|
--5----------------|--L----------------|--5----------------|--L----------------|
--3----------------|--L----------------|-------------------|-------------------|


                                             PM PM    PM PM    PM  
  W                   W                   E  E  E  E  E  E  E  E   
-------------------|-------------------|--------------------------|
-------------------|-------------------|--------------------------|
--9----------------|--5----------------|--------------------------|
--9----------------|--5----------------|--7--------7--------7-----|
--7----------------|--3----------------|--5--5--5--5--5--5--5--5--|
-------------------|-------------------|--------------------------|


  Coro A                                                               
  PM     PM PM PM                                                      
  E      E  E  E  Q    Q       H.           E  E     W                 
----------------------------|---------------------|-------------------|
----------------------------|---------------------|-------------------|
----------------------------|------------------5--|--L----------------|
--4------4--4--4------------|--2------------L--5--|--L----------------|
--2------2--2--2--5----4----|--2------------L--3--|--L----------------|
------------------3----2----|--0------------L-----|-------------------|


                           PM PM PM                                  
  H.           E  E     E  E  E  E  Q    Q       H.           E  E   
---------------------|------------------------|---------------------|
---------------------|------------------------|---------------------|
------------------4--|--L---------------------|------------------5--|
--5------------L--4--|--L--4--4--4------------|--2------------L--5--|
--5------------L--2--|--L--2--2--2--5----4----|--2------------L--3--|
--3------------L-----|--------------3----2----|--0------------L-----|


  W                   H.           E  E     H        Q    Q     
-------------------|---------------------|---------------------|
-------------------|---------------------|---------------------|
--L----------------|------------------4--|---------------------|
--L----------------|--5------------L--4--|-----------4---------|
--L----------------|--5------------L--2--|-----------2----5----|
-------------------|--3------------L-----|----------------3----|


                                            Verso Riff                       
                                                       PM PM PM    PM PM     
  W                   H.           E  E     E          E  E  E  E  E  E  E   
-------------------|---------------------|----------------------------------|
-------------------|---------------------|----------------------------------|
-------------------|---------------------|----------------------------------|
--2----------------|--L------------L-----|----------------------------------|
--2----------------|--L------------L--2--|--L-------------------2--------2--|
--0----------------|--L------------L--0--|--L----------0--0--0--0--0--0--0--|


     v  PM PM                   v  PM PM    PM PM                           
  E  E  E  E  E  E  E  E     E  E  E  E  E  E  E  E     H.           E  E   
--------------------------|--------------------------|---------------------|
--------------------------|--------------------------|---------------------|
--------------------------|--------------------------|---------------------|
--------------------------|-----------------------7--|--L------------L-----|
--L--2--------2--------2--|--L--2--------2--------5--|--L------------L--2--|
--L--0--0--0--0--3--2--0--|--L--0--0--0--0--0--0-----|------------------0--|


     PM PM PM    PM PM          v  PM PM              
  E  E  E  E  E  E  E  E     E  E  E  E  E  E  E  E   
--------------------------|--------------------------|
--------------------------|--------------------------|
--------------------------|--------------------------|
--------------------------|--------------------------|
--L-----------2--------2--|--L--2--------2--------2--|
--L--0--0--0--0--0--0--0--|--L--0--0--0--0--3--2--0--|


                                                 Pre-Coro          
     v  PM PM    PM PM                                             
  E  E  E  E  E  E  E  E     W                   W                 
--------------------------|-------------------|-------------------|
--------------------------|-------------------|-------------------|
--------------------------|-------------------|-------------------|
--------------5--------4--|--L----------------|--5----------------|
--L--2--------3--3--3--2--|--L----------------|--5----------------|
--L--0--0--0--------------|-------------------|--3----------------|


  W                   W                   W                   W                 
-------------------|-------------------|-------------------|-------------------|
-------------------|-------------------|-------------------|-------------------|
-------------------|--7----------------|--L----------------|--9----------------|
--L----------------|--7----------------|--L----------------|--9----------------|
--L----------------|--5----------------|--L----------------|--7----------------|
--L----------------|-------------------|-------------------|-------------------|


                                                 Coro A                     
                         PM PM    PM PM    PM    PM     PM PM PM            
  W                   E  E  E  E  E  E  E  E     E      E  E  E  Q    Q     
-------------------|--------------------------|----------------------------|
-------------------|--------------------------|----------------------------|
--5----------------|--------------------------|----------------------------|
--5----------------|--7--------7--------7-----|--4------4--4--4------------|
--3----------------|--5--5--5--5--5--5--5--5--|--2------2--2--2--5----4----|
-------------------|--------------------------|------------------3----2----|


  H.           E  E     W                   H.           E  E   
---------------------|-------------------|---------------------|
---------------------|-------------------|---------------------|
------------------5--|--L----------------|------------------4--|
--2------------L--5--|--L----------------|--5------------L--4--|
--2------------L--3--|--L----------------|--5------------L--2--|
--0------------L-----|-------------------|--3------------L-----|


     PM PM PM                                                      
  E  E  E  E  Q    Q       H.           E  E     W                 
------------------------|---------------------|-------------------|
------------------------|---------------------|-------------------|
--L---------------------|------------------5--|--L----------------|
--L--4--4--4------------|--2------------L--5--|--L----------------|
--L--2--2--2--5----4----|--2------------L--3--|--L----------------|
--------------3----2----|--0------------L-----|-------------------|


  H.           E  E     H        Q    Q       W                 
---------------------|---------------------|-------------------|
---------------------|---------------------|-------------------|
------------------4--|---------------------|-------------------|
--5------------L--4--|-----------4---------|--2----------------|
--5------------L--2--|-----------2----5----|--2----------------|
--3------------L-----|----------------3----|--0----------------|


                      Riff B / Verso                       
                                     PM PM PM PM PM    PM  
  W                   E              E  E  E  E  E  E  E   
-------------------|--------------------------------------|
-------------------|--------------------------------------|
-------------------|--------------------------------------|
--L----------------|--------------------------------------|
--L----------------|--4-----------------------------5-----|
--L----------------|--2--------------2--2--2--2--2--2--2--|


     PM PM PM PM PM    PM       PM PM PM PM PM    PM                      
  E  E  E  E  E  E  E  E     E  E  E  E  E  E  E  E     W                 
--------------------------|--------------------------|-------------------|
--------------------------|--------------------------|-------------------|
--------------------------|--------------------------|-------------------|
--------------------------|--------------------------|--2----------------|
--4-----------------5-----|--4-----------------5-----|--2----------------|
--2--2--2--2--2--2--2--2--|--2--2--2--2--2--2--2--2--|--0----------------|


     PM PM PM PM PM    PM       PM PM PM PM PM    PM  
  E  E  E  E  E  E  E  E     E  E  E  E  E  E  E  E   
--------------------------|--------------------------|
--------------------------|--------------------------|
--------------------------|--------------------------|
--------------------------|--------------------------|
--4-----------------5-----|--4-----------------5-----|
--2--2--2--2--2--2--2--2--|--2--2--2--2--2--2--2--2--|


     PM PM PM PM PM PM                         
  E  E  E  E  E  E  E  E     W                 
--------------------------|-------------------|
--------------------------|-------------------|
--------------------------|-------------------|
-----------------------2--|--L----------------|
--5--------------------2--|--L----------------|
--3--3--3--3--3--3--3--0--|--L----------------|


  Interludio                                                 
             PM PM PM PM PM PM PM    PM PM PM PM PM PM       
  E          E  E  E  E  E  E  E     E  E  E  E  E  E  Q     
----------------------------------|-------------------------|
----------------------------------|-------------------------|
----------------------------------|-------------------------|
----------------------------------|-------------------------|
--4-------------------------------|--------------------6----|
--2----------2--2--2--2--2--2--2--|--2--2--2--2--2--2--4----|


     PM PM PM PM PM PM PM    PM PM PM PM PM PM            PM PM PM PM PM PM PM  
  E  E  E  E  E  E  E  E     E  E  E  E  E  E  Q       E  E  E  E  E  E  E  E   
--------------------------|-------------------------|--------------------------|
--------------------------|-------------------------|--------------------------|
--------------------------|-------------------------|--------------------------|
--------------------------|-------------------------|--------------------------|
--2-----------------------|--------------------2----|--4-----------------------|
--0--0--0--0--0--0--0--0--|--0--0--0--0--0--0--0----|--2--2--2--2--2--2--2--2--|


  PM PM PM PM PM PM            PM PM PM PM PM PM          PM PM PM PM PM PM PM  
  E  E  E  E  E  E  Q       E  E  E  E  E  E  E  E     E  E  E  E  E  E  E  E   
-------------------------|--------------------------|--------------------------|
-------------------------|--------------------------|--------------------------|
-------------------------|--------------------------|--------------------------|
-------------------------|--------------------------|--------------------------|
--------------------6----|--5--------------------7--|--L-----------------------|
--2--2--2--2--2--2--4----|--3--3--3--3--3--3--3--5--|--L--5--5--5--5--5--5--5--|


  Solo Stefan Elmgren                                              
                      PM PM    PM PM            PM PM    PM PM     
  Q                   E  E  E  E  E  E     Q    E  E  E  E  E  E   
----------------------------------------|-------------------------|
----------------------------------------|-------------------------|
----------------------------------------|-------------------------|
--9-------------------------9--------5--|--L----------5--------4--|
--7-------------------------7--------3--|--L----3--3--3--3--3--2--|
--0-------------------0--0--0--0--0-----|-------------------------|


       PM PM    PM PM          PM PM      PM              PM PM    PM PM     
  Q    E  E  E  E  E  E     E  E  E  Q    E  Q       Q    E  E  E  E  E  E   
-------------------------|------------------------|-------------------------|
-------------------------|------------------------|-------------------------|
-------------------------|------------------------|-------------------------|
--L----------4--------5--|--L--------7-------7----|--9----------9--------5--|
--L----2--2--2--2--2--3--|--L--3--3--5----5--5----|--7----------7--------3--|
-------------------------|------------------------|--0----0--0--0--0--0-----|


       PM PM    PM PM            PM PM    PM PM          PM PM      PM       
  Q    E  E  E  E  E  E     Q    E  E  E  E  E  E     E  E  E  Q    E  Q     
-------------------------|-------------------------|------------------------|
-------------------------|-------------------------|------------------------|
-------------------------|-------------------------|------------------------|
--L----------5--------4--|--L----------4--------5--|--L--------7-------7----|
--L----3--3--3--3--3--2--|--L----2--2--2--2--2--3--|--L--3--3--5----5--5----|
-------------------------|-------------------------|------------------------|


  Intro Riff                                              
  Q          E  E  E  E  E  E     Q    E  E  E  E  E  E   
-------------------------------|-------------------------|
-------------------8--7--8-----|-------------8--7--8--7--|
--9----------9--9-----------9--|--L----9--9--------------|
-------------------------------|-------------------------|
-------------------------------|-------------------------|
-------------------------------|-------------------------|


  E  E  E  E  E  E  E  E     E  E  E   Q    E  Q       Q    E  E  E  E  E  E   
--------------------------|-------------------------|-------------------------|
--L-----------------7--8--|--L--7-----10----8--7----|-------------8--7--8-----|
-----8--8--8--9--9--------|--------9----------------|--9----9--9-----------9--|
--------------------------|-------------------------|-------------------------|
--------------------------|-------------------------|-------------------------|
--------------------------|-------------------------|-------------------------|


  Q    E  E  E  E  E  E     E  E  E  E  E  E  E  E     E  E  E   Q    E  E  E   
-------------------------|--------------------------|--------------------------|
-------------8--7--8--7--|--L-----------------7--8--|--L--7-----10----8--7--7--|
--L----9--9--------------|-----8--8--8--9--9--------|--------9-----------------|
-------------------------|--------------------------|--------------------------|
-------------------------|--------------------------|--------------------------|
-------------------------|--------------------------|--------------------------|


                      Coro B                                           
                             PM PM PM                                  
  W                   E      E  E  E  Q    Q       H.           E  E   
-------------------|----------------------------|---------------------|
--L----------------|--L-------------------------|---------------------|
-------------------|----------------------------|------------------5--|
-------------------|---------4--4--4------------|--2------------L--5--|
-------------------|---------2--2--2--5----4----|--2------------L--3--|
-------------------|------------------3----2----|--0------------L-----|


                                               PM PM PM            
  W                   H.           E  E     E  E  E  E  Q    Q     
-------------------|---------------------|------------------------|
-------------------|---------------------|------------------------|
--L----------------|------------------4--|--L---------------------|
--L----------------|--5------------L--4--|--L--4--4--4------------|
--L----------------|--5------------L--2--|--L--2--2--2--5----4----|
-------------------|--3------------L-----|--------------3----2----|


                                            PM PM PM PM PM PM PM PM  
  H.           E  E     W                   E  E  E  E  E  E  E  E   
---------------------|-------------------|--------------------------|
---------------------|-------------------|--------------------------|
------------------5--|--L----------------|--------------------------|
--2------------L--5--|--L----------------|--------------------------|
--2------------L--3--|--L----------------|--2--2--2--2--2--2--2--2--|
--0------------L-----|-------------------|--------------------------|


  PM PM PM PM                                                      
  E  E  E  E  Q    Q       H.           E  E     W                 
------------------------|---------------------|-------------------|
------------------------|---------------------|-------------------|
------------------------|------------------5--|--L----------------|
------------------------|--2------------L--5--|--L----------------|
--2--2--2--2--5----4----|--2------------L--3--|--L----------------|
--------------3----2----|--0------------L-----|-------------------|


                           PM PM PM                                  
  H.           E  E     E  E  E  E  Q    Q       H.           E  E   
---------------------|------------------------|---------------------|
---------------------|------------------------|---------------------|
------------------4--|--L---------------------|------------------5--|
--5------------L--4--|--L--4--4--4------------|--2------------L--5--|
--5------------L--2--|--L--2--2--2--5----4----|--2------------L--3--|
--3------------L-----|--------------3----2----|--0------------L-----|


                      Outro                                                
                      PM    PM PM PM PM PM PM PM    PM PM PM PM            
  W                   E     E  E  E  E  E  E  E     E  E  E  E  Q    Q     
-------------------|-----------------------------|------------------------|
-------------------|-----------------------------|------------------------|
--L----------------|-----------------------------|------------------------|
--L----------------|-----------------------------|------------------------|
--L----------------|--2-----2--2--2--2--2--2--2--|--2--2--2--2--5----4----|
-------------------|-----------------------------|--------------3----2----|


  PM PM PM PM PM PM PM PM    PM PM PM PM              PM PM PM PM PM PM PM PM  
  E  E  E  E  E  E  E  E     E  E  E  E  Q    Q       E  E  E  E  E  E  E  E   
--------------------------|------------------------|--------------------------|
--------------------------|------------------------|--------------------------|
--------------------------|------------------------|--------------------------|
--------------------------|------------------------|--------------------------|
--2--2--2--2--2--2--2--2--|--2--2--2--2--5----4----|--2--2--2--2--2--2--2--2--|
--------------------------|--------------3----2----|--------------------------|


  PM PM PM PM                                   
  E  E  E  E  Q    Q       Q.     E  H          
------------------------|---------------------||
------------------------|---------------------||
------------------------|---------------------||
------------------------|--2------------------||
--2--2--2--2--5----4----|--2------------------||
--------------3----2----|--0------------------||




Guitar #3:

Oscar Dronjak


           Intro                                            
                 PM PM      PM            PM PM      PM     
      S    Q     E  E  Q    E  E     Q    E  E  Q    E  E   
D#||----|-------------------------|------------------------|
A#||----|-------------------------|------------------------|
F#||----|-------------------------|------------------------|
C#||----|----------------------5--|--L----------5-------4--|
G#||----|--2-----------2-------3--|--L----3--3--3----3--2--|
D#||----|--0-----0--0--0----0-----|------------------------|


       PM PM      PM          PM PM      PM              PM PM    PM PM     
  Q    E  E  Q    E  E     E  E  E  Q    E  Q       Q    E  E  E  E  E  E   
------------------------|------------------------|-------------------------|
------------------------|------------------------|-------------------------|
------------------------|------------------------|-------------------------|
--L----------4-------5--|--L--------7-------7----|----------------------5--|
--L----2--2--2----2--3--|--L--3--3--5----5--5----|--2----------2--------3--|
------------------------|------------------------|--0----0--0--0--0--0-----|


     PM PM PM    PM PM          PM PM PM    PM PM          PM PM      PM        
  E  E  E  E  E  E  E  E     E  E  E  E  E  E  E  E     E  E  E  Q    E  E  E   
--------------------------|--------------------------|-------------------------|
--------------------------|--------------------------|-------------------------|
--------------------------|--------------------------|-------------------------|
--L-----------5--------4--|--L-----------4--------5--|--L--------7-------7--9--|
--L--3--3--3--3--3--3--2--|--L--2--2--2--2--2--2--3--|--L--3--3--5----5--5--7--|
--------------------------|--------------------------|-------------------------|


  Riff A                                                   
         v  PM PM    PM PM          v  PM PM               
  E      E  E  E  E  E  E  E     E  E  E  E  E   E  E  E   
------------------------------|---------------------------|
------------------------------|---------------------------|
------------------------------|---------------------------|
--L------9--------9--------9--|--L--9--------9---------9--|
--L------7--7--7--7--7--7--7--|--L--7--7--7--7--10--9--7--|
------------------------------|---------------------------|


     v  PM PM    PM PM                           
  E  E  E  E  E  E  E  E     H        Q.     E   
--------------------------|---------------------|
--------------------------|---------------------|
--------------------------|---------------------|
--L--9--------9--------7--|------------------9--|
--L--7--7--7--7--7--7--5--|------------------7--|
--------------------------|---------------------|


  Verso Riff                                                
             PM PM    PM PM          v  PM PM               
  Q          E  E  E  E  E  E     E  E  E  E  E   E  E  E   
-------------------------------|---------------------------|
-------------------------------|---------------------------|
-------------------------------|---------------------------|
--L----------------9--------9--|--L--9--------9---------9--|
--L----------7--7--7--7--7--7--|--L--7--7--7--7--10--9--7--|
-------------------------------|---------------------------|


     v  PM PM    PM PM                                  PM PM    PM PM     
  E  E  E  E  E  E  E  E     H.           E  E     Q    E  E  E  E  E  E   
--------------------------|---------------------|-------------------------|
--------------------------|---------------------|-------------------------|
--------------------------|---------------------|-------------------------|
--L--9--------9--------7--|--L------------L--9--|--L----------9--------9--|
--L--7--7--7--7--7--7--5--|--L------------L--7--|--L----7--7--7--7--7--7--|
--------------------------|---------------------|-------------------------|


     v  PM PM                    v  PM PM                                      
  E  E  E  E  E   E  E  E     E  E  E  E   Q.      E      H.            E  E   
---------------------------|--------------------------|-----------------------|
---------------------------|--------------------------|-----------------------|
---------------------------|--------------12------11--|---L-------------L-----|
--L--9--------9---------9--|--L--9--------10-------9--|---L-------------L--9--|
--L--7--7--7--7--10--9--7--|--L--7--7--7--------------|--------------------7--|
---------------------------|--------------------------|-----------------------|


       PM PM    PM PM          v  PM PM               
  Q    E  E  E  E  E  E     E  E  E  E  E   E  E  E   
-------------------------|---------------------------|
-------------------------|---------------------------|
-------------------------|---------------------------|
--L----------9--------9--|--L--9--------9---------9--|
--L----7--7--7--7--7--7--|--L--7--7--7--7--10--9--7--|
-------------------------|---------------------------|


     v  PM PM    PM PM                                  PM PM    PM PM     
  E  E  E  E  E  E  E  E     H.           E  E     Q    E  E  E  E  E  E   
--------------------------|---------------------|-------------------------|
--------------------------|---------------------|-------------------------|
--------------------------|---------------------|-------------------------|
--L--9--------9--------7--|--L------------L--9--|--L----------9--------9--|
--L--7--7--7--7--7--7--5--|--L------------L--7--|--L----7--7--7--7--7--7--|
--------------------------|---------------------|-------------------------|


     v  PM PM                    v  PM PM                                   
  E  E  E  E  E   E  E  E     E  E  E  E   Q.      E      W                 
---------------------------|--------------------------|--------------------|
---------------------------|--------------------------|--------------------|
---------------------------|--------------12------11--|---L----------------|
--L--9--------9---------9--|--L--9--------10-------9--|---L----------------|
--L--7--7--7--7--10--9--7--|--L--7--7--7--------------|--------------------|
---------------------------|--------------------------|--------------------|


   Pre-Coro                                                   
   W                    W                   W                 
--------------------|--------------------|-------------------|
--------------------|--------------------|-------------------|
--12----------------|---L----------------|--7----------------|
--12----------------|---L----------------|--7----------------|
--10----------------|---L----------------|--5----------------|
--------------------|--------------------|-------------------|


  W                   W                   W                 
-------------------|-------------------|-------------------|
-------------------|-------------------|-------------------|
--L----------------|--9----------------|--5----------------|
--L----------------|--9----------------|--5----------------|
--L----------------|--7----------------|--3----------------|
-------------------|-------------------|-------------------|


                             Coro A                                            
     PM PM    PM PM    PM    PM     PM PM PM                                   
  E  E  E  E  E  E  E  E     E      E  E  E  Q    Q       H.           E   E   
--------------------------|----------------------------|----------------------|
--------------------------|----------------------------|----------------------|
--------------------------|----------------------------|--9------------L--12--|
--7--------7--------7-----|--4------4--4--4--5----4----|--9------------L--10--|
--5--5--5--5--5--5--5--5--|--2------2--2--2--5----4----|--7------------L------|
--------------------------|------------------3----2----|----------------------|


                                                   PM  PM  PM            
  W                    H.            E   E     E   E   E   E  Q    Q     
-------------------|------------------------|---------------------------|
-------------------|------------------------|---------------------------|
--L----------------|--12-------------L--11--|--L--11--11--11------------|
--L----------------|--12-------------L---9--|--L---9---9---9--5----4----|
-------------------|--10-------------L------|-----------------5----4----|
-------------------|------------------------|-----------------3----2----|


  H.           E   E     W                    H.            E   E   
----------------------|-------------------|------------------------|
----------------------|-------------------|------------------------|
--9------------L--12--|--L----------------|--12-------------L--11--|
--9------------L--10--|--L----------------|--12-------------L---9--|
--7------------L------|-------------------|--10-------------L------|
----------------------|-------------------|------------------------|


  H        Q    Q       W                   H.           E  E   
---------------------|-------------------|---------------------|
---------------------|-------------------|---------------------|
-----------4---------|-------------------|---------------------|
-----------4----5----|--2----------------|--L------------L--9--|
-----------2----5----|--2----------------|--L------------L--7--|
----------------3----|--0----------------|--L------------L-----|


  Verso Riff                                                
             PM PM    PM PM          v  PM PM               
  Q          E  E  E  E  E  E     E  E  E  E  E   E  E  E   
-------------------------------|---------------------------|
-------------------------------|---------------------------|
-------------------------------|---------------------------|
--L----------------9--------9--|--L--9--------9---------9--|
--L----------7--7--7--7--7--7--|--L--7--7--7--7--10--9--7--|
-------------------------------|---------------------------|


     v  PM PM    PM PM                                  PM PM    PM PM     
  E  E  E  E  E  E  E  E     H.           E  E     Q    E  E  E  E  E  E   
--------------------------|---------------------|-------------------------|
--------------------------|---------------------|-------------------------|
--------------------------|---------------------|-------------------------|
--L--9--------9--------7--|--L------------L--9--|--L----------9--------9--|
--L--7--7--7--7--7--7--5--|--L------------L--7--|--L----7--7--7--7--7--7--|
--------------------------|---------------------|-------------------------|


     v  PM PM                    v  PM PM                                   
  E  E  E  E  E   E  E  E     E  E  E  E   Q.      E      W                 
---------------------------|--------------------------|--------------------|
---------------------------|--------------------------|--------------------|
---------------------------|--------------12------11--|---L----------------|
--L--9--------9---------9--|--L--9--------10-------9--|---L----------------|
--L--7--7--7--7--10--9--7--|--L--7--7--7--------------|--------------------|
---------------------------|--------------------------|--------------------|


   Pre-Coro                                                   
   W                    W                   W                 
--------------------|--------------------|-------------------|
--------------------|--------------------|-------------------|
--12----------------|---L----------------|--7----------------|
--12----------------|---L----------------|--7----------------|
--10----------------|---L----------------|--5----------------|
--------------------|--------------------|-------------------|


  W                   W                   W                 
-------------------|-------------------|-------------------|
-------------------|-------------------|-------------------|
--L----------------|--9----------------|--5----------------|
--L----------------|--9----------------|--5----------------|
--L----------------|--7----------------|--3----------------|
-------------------|-------------------|-------------------|


                             Coro A                                            
     PM PM    PM PM    PM    PM     PM PM PM                                   
  E  E  E  E  E  E  E  E     E      E  E  E  Q    Q       H.           E   E   
--------------------------|----------------------------|----------------------|
--------------------------|----------------------------|----------------------|
--------------------------|----------------------------|--9------------L--12--|
--7--------7--------7-----|--4------4--4--4--5----4----|--9------------L--10--|
--5--5--5--5--5--5--5--5--|--2------2--2--2--5----4----|--7------------L------|
--------------------------|------------------3----2----|----------------------|


                                                   PM  PM  PM            
  W                    H.            E   E     E   E   E   E  Q    Q     
-------------------|------------------------|---------------------------|
-------------------|------------------------|---------------------------|
--L----------------|--12-------------L--11--|--L--11--11--11------------|
--L----------------|--12-------------L---9--|--L---9---9---9--5----4----|
-------------------|--10-------------L------|-----------------5----4----|
-------------------|------------------------|-----------------3----2----|


  H.           E   E     W                    H.            E   E   
----------------------|-------------------|------------------------|
----------------------|-------------------|------------------------|
--9------------L--12--|--L----------------|--12-------------L--11--|
--9------------L--10--|--L----------------|--12-------------L---9--|
--7------------L------|-------------------|--10-------------L------|
----------------------|-------------------|------------------------|


  H        Q    Q       W                   W                 
---------------------|-------------------|-------------------|
---------------------|-------------------|-------------------|
-----------4---------|-------------------|-------------------|
-----------4----5----|--2----------------|--L----------------|
-----------2----5----|--2----------------|--L----------------|
----------------3----|--0----------------|--L----------------|


  Riff B / Verso                                                  
                 PM PM PM PM PM    PM       PM PM PM PM PM    PM  
  E              E  E  E  E  E  E  E     E  E  E  E  E  E  E  E   
--------------------------------------|--------------------------|
--------------------------------------|--------------------------|
--------------------------------------|--------------------------|
--------------------------------------|--------------------------|
--4-----------------------------5-----|--4-----------------5-----|
--2--------------2--2--2--2--2--2--2--|--2--2--2--2--2--2--2--2--|


     PM PM PM PM PM    PM                           PM PM PM PM PM    PM  
  E  E  E  E  E  E  E  E     W                   E  E  E  E  E  E  E  E   
--------------------------|-------------------|--------------------------|
--------------------------|-------------------|--------------------------|
--------------------------|-------------------|--------------------------|
--------------------------|--9----------------|--------------------------|
--4-----------------5-----|--7----------------|--4-----------------5-----|
--2--2--2--2--2--2--2--2--|--0----------------|--2--2--2--2--2--2--2--2--|


     PM PM PM PM PM    PM       PM PM PM PM PM PM                         
  E  E  E  E  E  E  E  E     E  E  E  E  E  E  E  E     W                 
--------------------------|--------------------------|-------------------|
--------------------------|--------------------------|-------------------|
--------------------------|--------------------------|-------------------|
--------------------------|-----------------------9--|--L----------------|
--4-----------------5-----|--5--------------------7--|--L----------------|
--2--2--2--2--2--2--2--2--|--3--3--3--3--3--3--3--0--|--L----------------|


  Interludio                                                 
             PM PM PM    PM PM PM       PM PM PM    PM       
  E          E  E  E  E  E  E  E     E  E  E  E  E  E  Q     
----------------------------------|-------------------------|
----------------------------------|-------------------------|
----------------------------------|-------------------------|
----------------------------------|-------------------------|
--4-------------------4-----------|--4-----------4-----6----|
--2----------2--2--2--2--2--2--2--|--2--2--2--2--2--2--4----|


     PM PM PM    PM PM PM       PM PM PM    PM PM PM  
  E  E  E  E  E  E  E  E     E  E  E  E  E  E  E  E   
--------------------------|--------------------------|
--------------------------|--------------------------|
--------------------------|--------------------------|
--------------------------|--------------------------|
--2-----------2-----------|--2-----------2-----------|
--0--0--0--0--0--0--0--0--|--0--0--0--0--0--0--0--0--|


     PM PM PM    PM PM PM       PM PM PM    PM            PM PM PM    PM PM     
  E  E  E  E  E  E  E  E     E  E  E  E  E  E  Q       E  E  E  E  E  E  E  E   
--------------------------|-------------------------|--------------------------|
--------------------------|-------------------------|--------------------------|
--------------------------|-------------------------|--------------------------|
--------------------------|-------------------------|--------------------------|
--4-----------4-----------|--4-----------4-----6----|--5-----------5--------7--|
--2--2--2--2--2--2--2--2--|--2--2--2--2--2--2--4----|--3--3--3--3--3--3--3--5--|


                             Solo Stefan Elmgren                    
     PM PM PM    PM PM PM                        PM PM    PM PM     
  E  E  E  E  E  E  E  E     Q                   E  E  E  E  E  E   
--------------------------|----------------------------------------|
--------------------------|----------------------------------------|
--------------------------|----------------------------------------|
--------------------------|-------------------------------------5--|
--L-----------7-----------|--2-------------------------2--------3--|
--L--5--5--5--5--5--5--5--|--0-------------------0--0--0--0--0-----|


       PM PM    PM PM            PM PM    PM PM          PM PM      PM       
  Q    E  E  E  E  E  E     Q    E  E  E  E  E  E     E  E  E  Q    E  Q     
-------------------------|-------------------------|------------------------|
-------------------------|-------------------------|------------------------|
-------------------------|-------------------------|------------------------|
--L----------5--------4--|--L----------4--------5--|--L--------7-------7----|
--L----3--3--3--3--3--2--|--L----2--2--2--2--2--3--|--L--3--3--5----5--5----|
-------------------------|-------------------------|------------------------|


       PM PM    PM PM            PM PM    PM PM            PM PM    PM PM     
  Q    E  E  E  E  E  E     Q    E  E  E  E  E  E     Q    E  E  E  E  E  E   
-------------------------|-------------------------|-------------------------|
-------------------------|-------------------------|-------------------------|
-------------------------|-------------------------|-------------------------|
----------------------5--|--L----------5--------4--|--L----------4--------5--|
--2----------2--------3--|--L----3--3--3--3--3--2--|--L----2--2--2--2--2--3--|
--0----0--0--0--0--0-----|-------------------------|-------------------------|


                           Intro Riff                                
     PM PM      PM                                                   
  E  E  E  Q    E  Q       H.           E  E     H.           E  E   
------------------------|---------------------|---------------------|
------------------------|---------------------|---------------------|
------------------------|------------------5--|--L------------L--4--|
--L--------7-------7----|--2------------L--5--|--L------------L--4--|
--L--3--3--5----5--5----|--2------------L--3--|--L------------L--2--|
------------------------|--0------------L-----|---------------------|


  H.           E  E     Q.     E  H           H.           E  E   
---------------------|---------------------|---------------------|
---------------------|---------------------|---------------------|
--L------------L--5--|--L------7--L--------|------------------5--|
--L------------L--5--|--L------7--L--------|--2------------L--5--|
--L------------L--3--|--L------5--L--------|--2------------L--3--|
---------------------|---------------------|--0------------L-----|


  H.           E  E     H.           E  E     Q.     H        E   
---------------------|---------------------|---------------------|
---------------------|---------------------|---------------------|
--L------------L--4--|--L------------L--5--|--L------7--------4--|
--L------------L--4--|--L------------L--5--|--L------7--------4--|
--L------------L--2--|--L------------L--3--|--L------5--------2--|
---------------------|---------------------|---------------------|


                      Coro B                                            
                             PM PM PM                                   
  W                   E      E  E  E  Q    Q       H.           E   E   
-------------------|----------------------------|----------------------|
-------------------|----------------------------|----------------------|
--L----------------|--L-------------------------|--9------------L--12--|
--L----------------|--L------4--4--4--5----4----|--9------------L--10--|
--L----------------|--L------2--2--2--5----4----|--7------------L------|
-------------------|------------------3----2----|----------------------|


                                                   PM  PM  PM            
  W                    H.            E   E     E   E   E   E  Q    Q     
-------------------|------------------------|---------------------------|
-------------------|------------------------|---------------------------|
--L----------------|--12-------------L--11--|--L--11--11--11------------|
--L----------------|--12-------------L---9--|--L---9---9---9--5----4----|
-------------------|--10-------------L------|-----------------5----4----|
-------------------|------------------------|-----------------3----2----|


                                             PM PM PM PM PM PM PM PM  
  H.           E   E     W                   E  E  E  E  E  E  E  E   
----------------------|-------------------|--------------------------|
----------------------|-------------------|--------------------------|
--9------------L--12--|--L----------------|--------------------------|
--9------------L--10--|--L----------------|--9--9--9--9--9--9--9--9--|
--7------------L------|-------------------|--------------------------|
----------------------|-------------------|--------------------------|


  PM PM PM PM                                                       
  E  E  E  E  Q    Q       H.           E   E     W                 
------------------------|----------------------|-------------------|
------------------------|----------------------|-------------------|
------------------------|--9------------L--12--|--L----------------|
--9--9--9--9--5----4----|--9------------L--10--|--L----------------|
--------------5----4----|--7------------L------|-------------------|
--------------3----2----|----------------------|-------------------|


                               PM  PM  PM                                   
   H.            E   E     E   E   E   E  Q    Q       H.           E   E   
------------------------|---------------------------|----------------------|
------------------------|---------------------------|----------------------|
--12-------------L--11--|--L--11--11--11------------|--9------------L--12--|
--12-------------L---9--|--L---9---9---9--5----4----|--9------------L--10--|
--10-------------L------|-----------------5----4----|--7------------L------|
------------------------|-----------------3----2----|----------------------|


                      Outro                                                
                      PM    PM PM PM PM PM PM PM    PM PM PM PM            
  W                   E     E  E  E  E  E  E  E     E  E  E  E  Q    Q     
-------------------|-----------------------------|------------------------|
-------------------|-----------------------------|------------------------|
--L----------------|-----------------------------|------------------------|
--L----------------|--9-----9--9--9--9--9--9--9--|--9--9--9--9--5----4----|
-------------------|-----------------------------|--------------5----4----|
-------------------|-----------------------------|--------------3----2----|


  PM PM PM PM PM PM PM PM    PM PM PM PM              PM PM PM PM PM PM PM PM  
  E  E  E  E  E  E  E  E     E  E  E  E  Q    Q       E  E  E  E  E  E  E  E   
--------------------------|------------------------|--------------------------|
--------------------------|------------------------|--------------------------|
--------------------------|------------------------|--------------------------|
--9--9--9--9--9--9--9--9--|--9--9--9--9--5----4----|--9--9--9--9--9--9--9--9--|
--------------------------|--------------5----4----|--------------------------|
--------------------------|--------------3----2----|--------------------------|


  PM PM PM PM                                   
  E  E  E  E  Q    Q       Q.     E  H          
------------------------|---------------------||
------------------------|---------------------||
------------------------|---------------------||
--9--9--9--9--5----4----|--2------------------||
--------------5----4----|--2------------------||
--------------3----2----|--0------------------||




Voice Melody:

Joacim Cans


             Verso Riff                        
             Count   down, des cen 
              E.   S  Q     E   E   
-------------19------19----12--12--|
-----------------------------------|
-------------16------16-----9---9--|
-----------------------------------|
-----------------------------------|
-----------------------------------|


       ding    down to  ze  ro               Burs    ting in  to    flames 
   E   S    S  E    E   E   Q    E     Q     S    S  E    E   Q     E      
---L--12----L-12---12--15--12-------|-------19----L-19---19--17----14-----|
------------------------------------|-------------------------------------|
---L---9----L--9----9--12---9-------|-------16----L-16---16--14----11-----|
------------------------------------|-------------------------------------|
------------------------------------|-------------------------------------|
------------------------------------|-------------------------------------|


                              Can't    you see   the co  
   H.           Q       Q     S     S  E   Q     E   E   
---L-----------------|-------19-----L-19--19----10--12--|
---------------------|----------------------------------|
---L-----------------|-------16-----L-16--16-----7---9--|
---------------------|----------------------------------|
---------------------|----------------------------------|
---------------------|----------------------------------|


       ming    of  a   he  ro             On  this en  chan  ting da  
   E   S    S  E   E   E   Q    E     E   E   E    E   Q     E    E   
---L--12----L-12--12--15--12-------|-----19--19---19--17----15---14--|
-----------------------------------|---------------------------------|
---L---9----L--9---9--12---9-------|-----16--16---16--14----12---11--|
-----------------------------------|---------------------------------|
-----------------------------------|---------------------------------|
-----------------------------------|---------------------------------|


       e   a   e   ay        So           stand up  and be  coun 
   E   E   E   E   Q     E   E      Q     Q     E   E   E   E    
---L--15--14--15--14-----L--12--|---L----19----17--15--12--17---|
--------------------------------|-------------------------------|
---L--12--11--12--11-----L---9--|---L----16----14--12---9--14---|
--------------------------------|-------------------------------|
--------------------------------|-------------------------------|
--------------------------------|-------------------------------|


        ted        In  the so         lar   glance in  the de  
   S S  Q.     E   E   E   E      E   Q     Q      E   E   E   
---L---15---------12--14--15--|---L--15----15-----14--12--14--|
------------------------------|-------------------------------|
---L---12----------9--11--12--|---L--12----12-----11---9--11--|
------------------------------|-------------------------------|
------------------------------|-------------------------------|
------------------------------|-------------------------------|


       sert  sand                 No    lon ger the hun 
   E   Q     Q.     Q       Q     Q     E   E   E   E   
---L--14----14-----------|-------19----17--15--12--17--|
-------------------------|-----------------------------|
---L--11----11-----------|-------16----14--12---9--14--|
-------------------------|-----------------------------|
-------------------------|-----------------------------|
-------------------------|-----------------------------|


      ted          U   ni         ted we  are   till the day 
  E   Q.     Q     E   E      E   E   E   Q     E    E   E   
-----15-----------14--15--|---L--15--15--15----14---12--14--|
--------------------------|---------------------------------|
-----12-----------11--12--|---L--12--12--12----11----9--11--|
--------------------------|---------------------------------|
--------------------------|---------------------------------|
--------------------------|---------------------------------|


                            Pre-Coro                                   
       we    fall                     A            chain     un        
   E   Q     Q.     Q       H         H            H         H         
---L--14----14-----------|-----------19--------|--17--------15--------|
-------------------------|---------------------|----------------------|
---L--11----11-----------|-----------16--------|--14--------12--------|
-------------------------|---------------------|----------------------|
-------------------------|---------------------|----------------------|
-------------------------|---------------------|----------------------|


   brea          ka       ble           E   very link 
   H.            Q        H         E   E   E    E    
--17------------15----|--14---------L--12--14---15---|
----------------------|------------------------------|
--14------------12----|--11---------L---9--11---12---|
----------------------|------------------------------|
----------------------|------------------------------|
----------------------|------------------------------|


       is    a     llied to         our   migh  ty         Vo      ow           
   E   Q     Q     Q     E      E   Q     Q     Q.         Q.      H        E   
---L--15----15----15----17--|---L--15----14----15------|--19------17-----------|
----------------------------|--------------------------|-----------------------|
---L--12----12----12----14--|---L--12----11----12------|--16------14-----------|
----------------------------|--------------------------|-----------------------|
----------------------------|--------------------------|-----------------------|
----------------------------|--------------------------|-----------------------|


  Coro A                                                     
            We're     Blood    Bound     We  aim for the sun 
  H         E     E   Q        Q     E   E   E   E   E   E   
-----------15-----L--14----|--12-----L--12--12--14--15--12--|
---------------------------|--------------------------------|
-----------12-----L--11----|---9-----L---9---9--11--12---9--|
---------------------------|--------------------------------|
---------------------------|--------------------------------|
---------------------------|--------------------------------|


           The lu  mi  nous    moon        will take us  high o   ver    ground 
   Q.      E   E   E   S    S  E       E   E    E    E   E    E   S   S  E      
---L------12--12--14--15----L------|--------------------15---15--17---L-14-----|
------------------------------15---|---L--15---15---15-------------------------|
---L-------9---9--11--12----L------|--------------------12---12--14---L-11-----|
------------------------------12---|---L--12---12---12-------------------------|
-----------------------------------|-------------------------------------------|
-----------------------------------|-------------------------------------------|


              We're     Blood    Bound     Co  llec ting the stars 
   E  Q.      E     E   Q        Q     E   E   E    E    E   E     
---L---------15-----L--14----|--12-----L--12--12---14---15--12----|
-----------------------------|------------------------------------|
---L---------12-----L--11----|---9-----L---9---9---11---12---9----|
-----------------------------|------------------------------------|
-----------------------------|------------------------------------|
-----------------------------|------------------------------------|


              We  hold a   po         wer that is  grea ter than all 
   Q.     E   E   E    E   E      E   E   E    E   E    E   E    E   
---L---------12--14---15------|-------------------15---15--17---14--|
--------------------------15--|---L--15--15---15--------------------|
---L----------9--11---12------|-------------------12---12--14---11--|
--------------------------12--|---L--12--12---12--------------------|
------------------------------|-------------------------------------|
------------------------------|-------------------------------------|


              We're     Blood       Bound                                  
   E  Q.      E     E   Q           H.           Q       W                 
---L---------15-----L--14----|--15g12-----------------|-------------------|
-----------------------------|------------------------|-------------------|
---L---------12-----L--11----|---11g9-----------------|-------------------|
-----------------------------|------------------------|-------------------|
-----------------------------|------------------------|-------------------|
-----------------------------|------------------------|-------------------|


  Verso Riff                                                               
              Watch   out,  the hea        thens    all a   round us       
  Q           E.   S  Q     E   E      E   S     S  E   E   E     Q    E   
-------------19------19----12--12--|---L--12-----L-12--12--15----12-------|
-----------------------------------|--------------------------------------|
-------------16------16-----9---9--|---L---9-----L--9---9--12-----9-------|
-----------------------------------|--------------------------------------|
-----------------------------------|--------------------------------------|
-----------------------------------|--------------------------------------|


        Al    ways    watch    your  ba         e   a   e   ack    We've    got 
  Q     S  S  S    S  S     S  Q     E      E   E   E   E   E  E   S     S  E   
-------19--L-19----L-19-----L-17----14--|---L--15--14--15--14-----10-----L-12--|
----------------------------------------|--------------------------------------|
-------16--L-16----L-16-----L-14----11--|---L--12--11--12--11------7-----L--9--|
----------------------------------------|--------------------------------------|
----------------------------------------|--------------------------------------|
----------------------------------------|--------------------------------------|


          a     lust   for free         dom          Wha te  
   E  E   Q     E.  S  E   E       S S  Q    Q.      E   E   
---L-----19----17-----15--17---|---L---15-----------12--15--|
-------------------------------|----------------------------|
---L-----16----14-----12--14---|---L---12------------9--12--|
-------------------------------|----------------------------|
-------------------------------|----------------------------|
-------------------------------|----------------------------|


       ver they say,  we    know        we'll stay         
   E   E   E    Q     Q     E       E   Q     Q.     Q     
---L--15--15---15----14----15---|---L--14----14-----------|
--------------------------------|-------------------------|
---L--12--12---12----11----12---|---L--11----11-----------|
--------------------------------|-------------------------|
--------------------------------|-------------------------|
--------------------------------|-------------------------|


  Pre-Coro                                                            
            We           are       in    des      truc          ta    
  H         H            H         Q     Q        H.            Q     
-----------19--------|--17--------15----15----|--17------------15----|
---------------------|------------------------|----------------------|
-----------16--------|--14--------12----12----|--14------------12----|
---------------------|------------------------|----------------------|
---------------------|------------------------|----------------------|
---------------------|------------------------|----------------------|


   ble           And no  ma         tter what ha    ppens, we  
   H         E   E   E   E      E   E    E    Q     Q      E   
--14---------L--12--14--15--|---L--15---15---14----15-----17--|
----------------------------|---------------------------------|
--11---------L---9--11--12--|---L--12---12---11----12-----14--|
----------------------------|---------------------------------|
----------------------------|---------------------------------|
----------------------------|---------------------------------|


                                                     Coro A                    
       will  rise  a          bo      ove                      We're     Blood 
   E   Q     Q     Q.         Q.      H        E     H         E     E   Q     
---L--15----14----15------|--19------17-----------|-----------15-----L--14----|
--------------------------|-----------------------|---------------------------|
---L--12----11----12------|--16------14-----------|-----------12-----L--11----|
--------------------------|-----------------------|---------------------------|
--------------------------|-----------------------|---------------------------|
--------------------------|-----------------------|---------------------------|


   Bound     We  aim for the sun            The lu  mi  nous    moon 
   Q     E   E   E   E   E   E      Q.      E   E   E   S    S  E    
--12-----L--12--12--14--15--12--|---L------12--12--14--15----L------|
--------------------------------|------------------------------15---|
---9-----L---9---9--11--12---9--|---L-------9---9--11--12----L------|
--------------------------------|------------------------------12---|
--------------------------------|-----------------------------------|
--------------------------------|-----------------------------------|


       will take us  high o   ver    ground               We're     Blood 
   E   E    E    E   E    E   S   S  E         E  Q.      E     E   Q     
--------------------15---15--17---L-14-----|---L---------15-----L--14----|
---L--15---15---15-------------------------|-----------------------------|
--------------------12---12--14---L-11-----|---L---------12-----L--11----|
---L--12---12---12-------------------------|-----------------------------|
-------------------------------------------|-----------------------------|
-------------------------------------------|-----------------------------|


   Bound     Co  llec ting the stars               We  hold a   po  
   Q     E   E   E    E    E   E        Q.     E   E   E    E   E   
--12-----L--12--12---14---15--12----|---L---------12--14---15------|
------------------------------------|--------------------------15--|
---9-----L---9---9---11---12---9----|---L----------9--11---12------|
------------------------------------|--------------------------12--|
------------------------------------|------------------------------|
------------------------------------|------------------------------|


       wer that is  grea ter than all               We're     Blood 
   E   E   E    E   E    E   E    E      E  Q.      E     E   Q     
-------------------15---15--17---14--|---L---------15-----L--14----|
---L--15--15---15--------------------|-----------------------------|
-------------------12---12--14---11--|---L---------12-----L--11----|
---L--12--12---12--------------------|-----------------------------|
-------------------------------------|-----------------------------|
-------------------------------------|-----------------------------|


      Bound                                  
      H.           Q       W                 
--15g12-----------------|-------------------|
------------------------|-------------------|
---11g9-----------------|-------------------|
------------------------|-------------------|
------------------------|-------------------|
------------------------|-------------------|


   Riff B / Verso                                               
   Look                  in  to  my     eyes           Tell me  
   Q             Q.      E   E   E      Q    H         E    E   
--14--------------------14--14--12--|--14-------------14---12--|
------------------------------------|--------------------------|
--11--------------------11--11---9--|--11-------------11----9--|
------------------------------------|--------------------------|
------------------------------------|--------------------------|
------------------------------------|--------------------------|


   what is     hi      dden     deep in    side           
   E    E  E   Q.      Q        E    Q     E    H         
--14---14-----14------17----|--17---16----16----L--------|
----------------------------|----------------------------|
--11---11-----11------14----|--14---13----13----L--------|
----------------------------|----------------------------|
----------------------------|----------------------------|
----------------------------|----------------------------|


   Chains        a   bout to     break          It's the 
   Q     Q.      E   E    E      Q    H         E    E   
--14------------14--14---12--|--14-------------14---14--|
-----------------------------|--------------------------|
--11------------11--11----9--|--11-------------11---11--|
-----------------------------|--------------------------|
-----------------------------|--------------------------|
-----------------------------|--------------------------|


   e   ver    las   ting  free          dom   for   us    
   E   E  E   Q     Q     E       Q     Q     Q     Q     
--15--15-----15----15----12---|---L----12----15----12----|
------------------------------|--------------------------|
--12--12-----12----12-----9---|---L-----9----12-----9----|
------------------------------|--------------------------|
------------------------------|--------------------------|
------------------------------|--------------------------|


   Interludio                                                      
   all                                                             
   Q         H.              W                   W                 
--14----------------------|-------------------|-------------------|
--------------------------|-------------------|-------------------|
--11----------------------|-------------------|-------------------|
--------------------------|-------------------|-------------------|
--------------------------|-------------------|-------------------|
--------------------------|-------------------|-------------------|


  W                   W                   W                   W                 
-------------------|-------------------|-------------------|-------------------|
-------------------|-------------------|-------------------|-------------------|
-------------------|-------------------|-------------------|-------------------|
-------------------|-------------------|-------------------|-------------------|
-------------------|-------------------|-------------------|-------------------|
-------------------|-------------------|-------------------|-------------------|


                      Solo Stefan Elmgren                      
  W                   W                      W                 
-------------------|----------------------|-------------------|
-------------------|----------------------|-------------------|
-------------------|----------------------|-------------------|
-------------------|----------------------|-------------------|
-------------------|----------------------|-------------------|
-------------------|----------------------|-------------------|


  W                   W                   W                   W                 
-------------------|-------------------|-------------------|-------------------|
-------------------|-------------------|-------------------|-------------------|
-------------------|-------------------|-------------------|-------------------|
-------------------|-------------------|-------------------|-------------------|
-------------------|-------------------|-------------------|-------------------|
-------------------|-------------------|-------------------|-------------------|


                                          Intro Riff                            
  W                   W                   W                   W                 
-------------------|-------------------|-------------------|-------------------|
-------------------|-------------------|-------------------|-------------------|
-------------------|-------------------|-------------------|-------------------|
-------------------|-------------------|-------------------|-------------------|
-------------------|-------------------|-------------------|-------------------|
-------------------|-------------------|-------------------|-------------------|


  W                   W                   W                   W                 
-------------------|-------------------|-------------------|-------------------|
-------------------|-------------------|-------------------|-------------------|
-------------------|-------------------|-------------------|-------------------|
-------------------|-------------------|-------------------|-------------------|
-------------------|-------------------|-------------------|-------------------|
-------------------|-------------------|-------------------|-------------------|


  W                   W                   W                 
-------------------|-------------------|-------------------|
-------------------|-------------------|-------------------|
-------------------|-------------------|-------------------|
-------------------|-------------------|-------------------|
-------------------|-------------------|-------------------|
-------------------|-------------------|-------------------|


  Coro B                                                     
            We're     Blood    Bound     We  aim for the sun 
  H         E     E   Q        Q     E   E   E   E   E   E   
-----------15-----L--14----|--12-----L--12--12--14--15--12--|
---------------------------|--------------------------------|
-----------12-----L--11----|---9-----L---9---9--11--12---9--|
---------------------------|--------------------------------|
---------------------------|--------------------------------|
---------------------------|--------------------------------|


           The lu  mi  nous    moon        will take us  high o   ver    ground 
   Q.      E   E   E   S    S  E       E   E    E    E   E    E   S   S  E      
---L------12--12--14--15----L------|--------------------15---15--17---L-14-----|
------------------------------15---|---L--15---15---15-------------------------|
---L-------9---9--11--12----L------|--------------------12---12--14---L-11-----|
------------------------------12---|---L--12---12---12-------------------------|
-----------------------------------|-------------------------------------------|
-----------------------------------|-------------------------------------------|


              We're     Blood    Bound     Co  llec ting the stars 
   E  Q.      E     E   Q        Q     E   E   E    E    E   E     
---L---------15-----L--14----|--12-----L--12--12---14---15--12----|
-----------------------------|------------------------------------|
---L---------12-----L--11----|---9-----L---9---9---11---12---9----|
-----------------------------|------------------------------------|
-----------------------------|------------------------------------|
-----------------------------|------------------------------------|


              We    hold a        po        wer  to    
   Q.     E   S  S  E    Q        H         Q    Q     
---L---------12--L-14---15----|--15--------14----7----|
------------------------------|---8---------7---------|
---L----------9--L-11---12----|------------------4----|
------------------------------|-----------------------|
------------------------------|-----------------------|
------------------------------|-----------------------|


   ge        ther/(We're     Blood    Bound)     We  aim for the sun 
   H         E           E   Q        Q      E   E   E   E   E   E   
--15--------14--------------14----|--12------L--12--12--14--15--12--|
---8---------7--------------------|---------------------------------|
------------12-----------L--11----|---9------L---9---9--11--12---9--|
----------------------------------|---------------------------------|
----------------------------------|---------------------------------|
----------------------------------|---------------------------------|


           The lu  mi  nous    moon        will take us  high o   ver    ground 
   Q.      E   E   E   S    S  E       E   E    E    E   E    E   S   S  E      
---L------12--12--14--15----L------|--------------------15---15--17---L-14-----|
------------------------------15---|---L--15---15---15-------------------------|
---L-------9---9--11--12----L------|--------------------12---12--14---L-11-----|
------------------------------12---|---L--12---12---12-------------------------|
-----------------------------------|-------------------------------------------|
-----------------------------------|-------------------------------------------|


              We're     Blood    Bound     Co  llec ting the stars 
   E  Q.      E     E   Q        Q     E   E   E    E    E   E     
---L---------15-----L--14----|--12-----L--12--12---14---15--12----|
-----------------------------|------------------------------------|
---L---------12-----L--11----|---9-----L---9---9---11---12---9----|
-----------------------------|------------------------------------|
-----------------------------|------------------------------------|
-----------------------------|------------------------------------|


                                  Outro                
              We    hold a        po        wer  to    
   Q.     E   S  S  E    Q        H         Q    Q     
---L---------12--L-14---15----|--15--------14----7----|
------------------------------|---8---------7---------|
---L----------9--L-11---12----|------------------4----|
------------------------------|-----------------------|
------------------------------|-----------------------|
------------------------------|-----------------------|


   ge        ther/(Blood       Bound)    po        wer  for   
   H         E           S  S  Q         H         Q    Q     
--15--------14----------------14-----|--15--------14----7----|
---8---------7-----------------------|---8---------7---------|
------------12-----------L--L-11-----|------------------4----|
-------------------------------------|-----------------------|
-------------------------------------|-----------------------|
-------------------------------------|-----------------------|


   e          ver/(Blood       Bound)    po        wer...    
   H          E          S  S  Q         H         H         
--17b--------14---------------14-----|--15--------14--------|
--10b---------7----------------------|----------------------|
-------------12----------L--L-11-----|--12--------11--------|
-------------------------------------|----------------------|
-------------------------------------|----------------------|
-------------------------------------|----------------------|


             We're     Blood    Bound               
   H         E     E   Q        Q    H.             
---L--------15-----L--14----|--12-----------------||
----------------------------|---------------------||
---L--------12-----L--11----|---9-----------------||
----------------------------|---------------------||
----------------------------|---------------------||
----------------------------|---------------------||




Duration Legend
---------------
W - whole
H - half
Q - quarter
E - 8th
S - 16th
T - 32nd
X - 64th
. - note dotted
|-n-|  - n-tuplets


Tablature Legend
----------------
L - tied note
x - dead note
g - grace note
(n) - ghost note
> - accentuded note
NH - natural harmonic
AH - artificial harmonic
TH - tapped harmonic
SH - semi harmonic
PH - pitch harmonic
h - hammer on
p - pull off
b - bend
br - bendRelease
pb - preBend
pbr - preBendRelease
brb - bendReleaseBend
\n/ - tremolo bar dip
\n - tremolo bar dive
-/n - tremolo bar Release up
/n\ - tremolo bar inverted dip
/n - tremolo bar return
-\n - tremolo bar Release down
S - shift slide
s - legato slide
/ -  slide into from below or out of upwards
\ -  slide into from above or out of downwards
~ - vibrato
W - wide vibrato
tr - trill
TP - tremolo picking
T - tapping
S - slap
P - pop
< - fade in
^ - brush up
v - brush down
Suggest correction
Creating personal tab
Creating personal tab
You can edit any tab online and save it as your Personal.

You can edit, replace or remove any tab part or add personal notes – all changes will be seen only by you.

Personal tabs can be accessed anytime from any device, even offline.
Learn more »
comments
print report bad tab
guest
You may want to rate the tab now too:
select rating
Wanna post a correction for this tab? Suggest correction