Oops, an error
Loading. Please wait.

Carved In Stone Part 3 Tab

193 views 1 this week
no commentswrite comment
1 2 3 4 5
2 more votes to show rating
add to favorites
launch autoscroll
font size
0
reset
how to read this tab
guitar tuner
Autoscroll
slow
fast
+/-
esc
set tempo
stop
Help us to improve Ultimate-Guitar.com Take our survey!
×
  Tabbed By : xXEvoulutionXx
  Tuning : D 

  Hiya all xP i have done the last part now enjoy the song.
  Everyone who has been playing guitar for while wont have problems with 
  this song. 
  You will only enjoy it  ;).
  There is also a lot of peopel that only learn the intro and maybe the solo.
  But trust me, try the whole song its not that hard.
  It may be a problem in the way i put the tab in. the second guitar doesnt 
  follow the 1st Perfect but good enough.
  so if you dont understand where to play with the second guitar the second 
  guitar , then just listen to the song.
  

            x Solo x 
  Guitar 1
e|-------------------------------------------------------------|
B|---13---13-13-13-15s16s15-15----15---15-15-15-15s16s15-13----|
G|-------------------------------------------------------------|
D|-------------------------------------------------------------|
A|-------------------------------------------------------------|
E|-------------------------------------------------------------|

  Guitar 2
e|-------------------------------------------------------------|
B|-------------------------------------------------------------|
G|-------------------------------------------------------------|
D|-5--------5--------5--7--8--7----7--------7---------------5--|
A|-3--3--3--3--3--3--3--5--6--5----5--5--5--5--5--5-5--5--5-3--|
E|--------------------------------------------------3--3--3----|

  Guitar 1
e|-------------------------------------------------------------|
B|---13--15--16--13--15--16--13--15--16--15----11----8----9----|
G|-------------------------------------------------------------|
D|-------------------------------------------------------------|
A|-------------------------------------------------------------|
E|-------------------------------------------------------------|

  Guitar 2
e|-------------------------------------------------------------|
B|-------------------------------------------------------------|
G|-------------------------------------------------------------|
D|---5--------5--------5--7--8--7------------------------------|
A|---3--3--3--3--3--3--3--5--6--5-----8----5----6--------------|
E|------------------------------------6----3----4--------------|

  Guitar 1
e|-------------------------------------------------------------|
B|---20-----20--18--16--18-----15-----15s16s15--13-------------|
G|-------------------------------------------------------------|
D|-------------------------------------------------------------|
A|-------------------------------------------------------------|
E|-------------------------------------------------------------|

  Guitar 2
e|-------------------------------------------------------------|
B|-------------------------------------------------------------|
G|-------------------------------------------------------------|
D|-5--------5--------5--7--8--7----7--------7---------------5--|
A|-3--3--3--3--3--3--3--5--6--5----5--5--5--5--5--5-5--5--5-3--|
E|--------------------------------------------------3--3--3----|

  Guitar 1
e|-------------------------------------------------------------|
B|---13--15--16--13--15--16--13--15--16--15--------------------|
G|-------------------------------------------------------------|
D|-------------------------------------------------------------|
A|-------------------------------------------------------------|
E|-------------------------------------------------------------|

  Guitar 2
e|-------------------------------------------------------------|
B|-------------------------------------------------------------|
G|-------------------------------------------------------------|
D|---5--------5--------5--7--8--7------------------------------|
A|---3--3--3--3--3--3--3--5--6--5------------------------------|
E|-------------------------------------------------------------|

  Guitar 1 
e|-------------------------10----15-----13--10--11-------------|
B|---11---8---9---6---8----------------------------------------|
G|-------------------------------------------------------------|
D|-------------------------------------------------------------|
A|-------------------------------------------------------------|
E|-------------------------------------------------------------|

  Guitar 2
e|--------------------------------------------------------------|
B|--------------------------------------------------------------|
G|--------------------------------------------------------------|
D|--------------------------------------------------------------|
A|---8---5---6---3-----5--5-5-5---5--5-5-5---5--5-5-5---5--5-5-5|
E|---6---3---4---1-----3--3-3-3---3--3-3-3---3--3-3-3---3--3-3-3|

  Guitar 2 (Continue)
e|-------------------------------------------------------------|
B|-------------------------------------------------------------|
G|-------------------------------------------------------------|
D|-------------------------------------------------------------|
A|---5--5-5-5---5--5-5-5------------3--5--6------------6-------|
E|---3--3-3-3---3--3-3-3------------1--3--4---4--4--4--4-------|

  Guitar 1
e|---13s14s13--18-----20-----19--21--22---16-------------------|
B|-------------------------------------------------------------|
G|-------------------------------------------------------------|
D|-------------------------------------------------------------|
A|-------------------------------------------------------------|
E|-------------------------------------------------------------|

  Guitar 2
e|-----------------------------------------------------------------------|
B|-----------------------------------------------------------------------|
G|-----------------------------------------------------------------------|
D|-----------8-------------8---8-----------------------------6-----------|
A|-----------6----6--6--6--6---6--3-------------3------------4----4--4--4|
E|---4--4--4----------------------1----1--1--1--1----1--1--1-------------|

  Guitar 1 
e|---16--15--13--16--15--13--11--------------------------------|
B|-------------------------------------------------------------|
G|-------------------------------------------------------------|
D|-------------------------------------------------------------|
A|-------------------------------------------------------------|
E|-------------------------------------------------------------|

  Guitar 2
e|-------------------------------------------------------------|
B|-------------------------------------------------------------|
G|-------------------------------------------------------------|
D|---------------------6-------------6-------------------------|
A|---4--3--1--4--3--1--4----4--4--4--4-------------------------|
E|-------------------------------------------------------------|

  Guitar 1
e|---13s14s13--18-----------18---18---20----19--21--22--16-----|
B|-----------------18s19s18------------------------------------|
G|-------------------------------------------------------------|
D|-------------------------------------------------------------|
A|-------------------------------------------------------------|
E|-------------------------------------------------------------|
 
  Guitar 1 (Continue)
e|---16--15--13--18----15--------------------------------------|
B|-------------------------------------------------------------|
G|-------------------------------------------------------------|
D|-------------------------------------------------------------|
A|-------------------------------------------------------------|
E|-------------------------------------------------------------|

  Guitar 2
e|--------------------------------------------------------------------------|
B|--------------------------------------------------------------------------|
G|--------------------------------------------------------------------------|
D|-----------8-------------8---8----------------------------6---6--5--6--8-6|
A|-----------6----6--6--6--6---6--3-------------3-----------4---4--3--4--6-4|
E|---4--4--4----------------------1----1--1--1--1----1--1--1----------------|

  Chorus
  Both Guitars
e|-------------------------------------------------------------|
B|-------------------------------------------------------------|
G|-------------------------------------------------------------|
D|---7-------------7-------------5-------------5---------------|
A|---5----5--5--5--5----5--5--5--3----3--3--3--3----3--3--3----|
E|-------------------------------------------------------------|

  Guitar 1
e|-------------------------------------------------------------|
B|-------------------------------------------------------------|
G|-------------------------------------------------------------|
D|-------------------------------------------------------------|
A|---13--12--10--10--12--13--13--12--10--10----12--10--12------|
E|-------------------------------------------------------------|

  Guitar 2
e|-------------------------------------------------------------|
B|-------------------------------------------------------------|
G|-------------------------------------------------------------|
D|-------------------------------------------------------------|
A|---8-------------8-------------8-------------8---------------|
E|---6----6--6--6--6----6--6--6--6----6--6--6--6--6--6--6------|

   Both Guitars
e|-------------------------------------------------------------|
B|-------------------------------------------------------------|
G|-------------------------------------------------------------|
D|---7-------------7-------------5-------------5---------------|
A|---5----5--5--5--5----5--5--5--3----3--3--3--3----3--3--3----|
E|-------------------------------------------------------------|

  Guitar 1
e|-------------------------------------------------------------|
B|-------------------------------------------------------------|
G|-------------------------------------------------------------|
D|-------------------------------------------------------------|
A|---13--12--10--10--12--13--13----13--12--13--15--------------|
E|-------------------------------------------------------------|

  Guitar 2
e|-------------------------------------------------------------|
B|-------------------------------------------------------------|
G|-------------------------------------------------------------|
D|-------------------------------------------------------------|
A|---8------------8-------------8----8--7--8--10---------------|
E|---6---6--6--6--6----6--6--6--6----6--5--6--8----------------|

    Final Chorus
   Both Guitars
e|-------------------------------------------------------------|
B|-------------------------------------------------------------|
G|-------------------------------------------------------------|
D|---7-------------7-------------5-------------5---------------|
A|---5----5--5--5--5----5--5--5--3----3--3--3--3----3--3--3----|
E|-------------------------------------------------------------|

   Guitar 1
e|-------------------------------------------------------------|
B|-------------------------------------------------------------|
G|-------------------------------------------------------------|
D|-------------------------------------------------------------|
A|---13--12--10--10--12--13--13--12--10--10----12--10--12------|
E|-------------------------------------------------------------|

   Guitar 2
e|-------------------------------------------------------------|
B|-------------------------------------------------------------|
G|-------------------------------------------------------------|
D|-------------------------------------------------------------|
A|---8-------------8-------------8-------------8---------------|
E|---6----6--6--6--6----6--6--6--6----6--6--6--6--6--6--6------|

    Both Guitars
e|-------------------------------------------------------------|
B|-------------------------------------------------------------|
G|-------------------------------------------------------------|
D|---7-------------7-------------5-------------5---------------|
A|---5----5--5--5--5----5--5--5--3----3--3--3--3----3--3--3----|
E|-------------------------------------------------------------|

  Guitar 1
e|-------------------------------------------------------------|
B|-------------------------------------------------------------|
G|-------------------------------------------------------------|
D|-------------------------------------------------------------|
A|---13--12--10--10--12--13--13----13--12--13----15---11---12--|
E|-------------------------------------------------------------|

  Guitar 2
e|-------------------------------------------------------------|
B|-------------------------------------------------------------|
G|-------------------------------------------------------------|
D|-------------------------------8------------10---------------|
A|---8-------------8-------------6---6--6--6--8----------------|
E|---6----6--6--6--6----6--6--6--------------------------------|


  Thnk you all i will be back with more tabs :)

Suggest correction
Give kudos to tab author, rate the tab!
1 2 3 4 5
comments
print report bad tab
guest
You may want to rate the tab now too:
select rating
Wanna post a correction for this tab? Suggest correction