Oops, an error
Loading. Please wait.

Dreams Come True Tab

version 1
version 1

Whole song

Interactive

5,466 views 6 this week
no commentswrite comment
1 2 3 4 5
accurate
x 3
add to favorites
launch autoscroll
font size
0
reset
how to read this tab
guitar tuner
Autoscroll
slow
fast
+/-
esc
set tempo
stop
Help us to improve Ultimate-Guitar.com Take our survey!
×
Author
Difficulty
intermediate
Song:Drems Come True
Artist:HammerFall
Album:Crimson Thunder
Tabbed by:Elias Stasi


Intro:

e-5---5---5-5--5---5-5-5-|
B-5---5---5-5--5---5-5-5-|
G-5---5---5-5--5---5-5-5-|
D-7---7---7-7--7---7-7-7-|
A-7---7---7-7--7---7-7-7-|
E-5---5---5-5--5---5-5-5-|


e-3---3-3-3---3---3-3-3-----5-|
B-5---5-5-5---3---3-3-3-----5-|
G-5---5-5-5---4---4-4-4-----5-|
D-5---5-5-5---5---5-5-5-----7-|
A-3---3-3-3---5---5-5-5-----7-|
E-3---3-3-3---3---3-3-3-----5-|


Verse:

e-0------0-------------0-----------0----------|
B-0--------0---------0--0--------1---1--------|
G-0---0------0------0----0------2-----2-------|
D-2--2---------2---2------2----2--------2-----|
A-2---------------2-----------0-------------0-|
E-0-------------------------------------------|


e-----2-3-2-------2------3-----3-----3----|
B---3------------3-3-3---0--0---0----0----|
G--2-2------2---2---2-2--0-0-0---0---0----|
D-0------------0---------0--------0--0----|
A------------------------2-----------2----|
E------------------------3-----------3--2-|


e-0------0-------------0-----------0----------|
B-0--------0---------0--0--------1---1--------|
G-0---0------0------0----0------2-----2-------|
D-2--2---------2---2------2----2--------2-----|
A-2---------------2-----------0-------------0-|
E-0-------------------------------------------|


e-----2-3-2-------2----------0-----0-|
B---3------------3-3-3------0-0----0-|
G--2-2------2---2---2-2----0---0---0-|
D-0------------0----------2-----2--2-|
A------------------------2---------2-|
E----------------------------------0-|

Pre-Chorus:

e-5---5---5-5--5---5--5-5-|
B-5---5---5-5--5---5--5-5-|
G-5---5---5-5--5---5--5-5-|
D-7---7---7-7--7---7--7-7-|
A-7---7---7-7--7---7--7-7-|
E-5---5---5-5--5---5--5-5-|


e-0---0---0-0--0---0--0-0-|
B-0---0---0-0--0---0--0-0-|
G-0---0---0-0--0---0--0-0-|
D-2---2---2-2--2---2--2-2-|
A-2---2---2-2--2---2--2-2-|
E-0---0---0-0--0---0--0-0-|


e-5---5---5-5--5---5--5-5-|
B-6---6---6-6--6---6--6-6-|
G-7---7---7-7--7---7--7-7-|
D-7---7---7-7--7---7--7-7-|
A-5---5---5-5--5---5--5-5-|
E-5---5---5-5--5---5--5-5-|


e-3---3---3-3--3-|
B-3---3---3-3--3-|
G-4---4---4-4--4-|
D-5---5---5-5--5-|
A-5---5---5-5--5-|
E-3---3---3-3--3-|


Chorus:


e-5---5---5-5--5---5-5-5-|
B-5---5---5-5--5---5-5-5-|
G-5---5---5-5--5---5-5-5-|
D-7---7---7-7--7---7-7-7-|
A-7---7---7-7--7---7-7-7-|
E-5---5---5-5--5---5-5-5-|


e-3---3---3-3--3---3-3-3-|
B-3---3---3-3--3---3-3-3-|
G-4---4---4-4--4---4-4-4-|
D-5---5---5-5--5---5-5-5-|
A-5---5---5-5--5---5-5-5-|
E-3---3---3-3--3---3-3-3-|


e-5---5---5-5--5---5-5-5-|
B-6---6---6-6--6---6-6-6-|
G-7---7---7-7--7---7-7-7-|
D-7---7---7-7--7---7-7-7-|
A-5---5---5-5--5---5-5-5-|
E-5---5---5-5--5---5-5-5-|


e-3--3-3-3--3-3---3--3-3-3--3-3-3-|
B-5--5-5-5--5-5---3--3-3-3--3-3-3-|
G-5--5-5-5--5-5---4--4-4-4--4-4-4-|
D-5--5-5-5--5-5---5--5-5-5--5-5-5-|
A-3--3-3-3--3-3---5--5-5-5--5-5-5-|
E-3--3-3-3--3-3---3--3-3-3--3-3-3-|


e-3---3-3-3----3---3-3-3-|
B-5---5-5-5----5---5-5-5-|
G-5---5-5-5----5---5-5-5-|
D-5---5-5-5----5---5-5-5-|
A-3---3-3-3----3---3-3-3-|
E-3---3-3-3----3---3-3-3-|


e-3---3---3-3--3----3-3-3-|
B-4---4---4-4--4----4-4-4-|
G-5---5---5-5--5----5-5-5-|
D-5---5---5-5--5----5-5-5-|
A-3---3---3-3--3----3-3-3-|
E-3---3---3-3--3----3-3-3-|


e-5---5---5-5--5----5-5-5-|
B-5---5---5-5--5----5-5-5-|
G-5---5---5-5--5----5-5-5-|
D-7---7---7-7--7----7-7-7-|
A-7---7---7-7--7----7-7-7-|
E-5---5---5-5--5----5-5-5-|


e-5---5---5-5--3----3-3-3----5----3---3----5-|
B-6---6---6-6--3----3-3-3----5----5---3----5-|
G-7---7---7-7--4----4-4-4----5----5---4----5-|
D-7---7---7-7--5----5-5-5----7----5---5----7-|
A-5---5---5-5--5----5-5-5----7----3---5----7-|
E-5---5---5-5--3----3-3-3----5----3---3----5-|


Repeat:Verse,Pre-Chorus and Chorus

Lead(like Verse):

e-0------0-------------0-----------0----------|
B-0--------0---------0--0--------1---1--------|
G-0---0------0------0----0------2-----2-------|
D-2--2---------2---2------2----2--------2-----|
A-2---------------2-----------0-------------0-|
E-0-------------------------------------------|


e-----2-3-2-------2------3-----3-----3----|
B---3------------3-3-3---0--0---0----0----|
G--2-2------2---2---2-2--0-0-0---0---0----|
D-0------------0---------0--------0--0----|
A------------------------2-----------2----|
E------------------------3-----------3--2-|


e-0------0-------------0-----------0----------|
B-0--------0---------0--0--------1---1--------|
G-0---0------0------0----0------2-----2-------|
D-2--2---------2---2------2----2--------2-----|
A-2---------------2-----------0-------------0-|
E-0-------------------------------------------|


e-----2-3-2-------2----------0-----0-|
B---3------------3-3-3------0-0----0-|
G--2-2------2---2---2-2----0---0---0-|
D-0------------0----------2-----2--2-|
A------------------------2---------2-|
E----------------------------------0-|


Repeat:Pre-Chorus and Chorus


                     THE    END!!!!!!!
Suggest correction
Give kudos to tab author, rate the tab!
1 2 3 4 5
comments
print report bad tab
guest
You may want to rate the tab now too:
select rating
Wanna post a correction for this tab? Suggest correction