Oops, an error
Loading. Please wait.

I Believe bass

version 1
version 1

Whole song

Interactive

381 views 1 this week
no commentswrite comment
1 2 3 4 5
3 more votes to show rating
add to favorites
×
Save as Personal and add changes to this tab that will be seen only by you. Learn more ›
×
You can save this tab as Personal to edit and correct it or add notes. All changes will be seen only by you. Learn more »
launch autoscroll
font size
0
reset
guitar tuner
edit
Autoscroll
slow
fast
+/-
esc
set tempo
stop
I Believe                                     

Transcribed by an unregistered user

HammerFall
Bass
..............



     W                   H        H           W                 
G||-------------------|--------------------|-------------------|
D||-------------------|-----------0--------|-------------------|
A||-------------------|--------------------|--3----------------|
E||--0----------------|--L-----------------|-------------------|


  H        H           W                   H        H         
--------------------|-------------------|--------------------|
-----------0--------|-------------------|-----------0--------|
--L-----------------|-------------------|--------------------|
--------------------|--0----------------|--L-----------------|


  W                   W                   W                 
-------------------|-------------------|-------------------|
-------------------|-------------------|-------------------|
--3----------------|--2----------------|-------------------|
-------------------|-------------------|--0----------------|


  H        H           W                   W                 
--------------------|-------------------|-------------------|
-----------0--------|-------------------|-------------------|
--------------------|--3----------------|--L----------------|
--L-----------------|-------------------|-------------------|


  W                   H        H           W                 
-------------------|--------------------|-------------------|
-------------------|-----------0--------|-------------------|
-------------------|--------------------|--3----------------|
--0----------------|--L-----------------|-------------------|


  W                   H.           E  E     W                 
-------------------|---------------------|-------------------|
-------------------|---------------------|-------------------|
--2----------------|------------------0--|--L----------------|
-------------------|--0------------0-----|-------------------|


  H.           E  E     W                   W                 
---------------------|-------------------|-------------------|
---------------------|-------------------|-------------------|
------------------0--|--L----------------|--2----------------|
--0------------0-----|-------------------|-------------------|


  W                   W                   W                   W                 
-------------------|-------------------|-------------------|-------------------|
-------------------|-------------------|-------------------|-------------------|
--L----------------|--0----------------|--L----------------|-------------------|
-------------------|-------------------|-------------------|--3----------------|


  Q.     Q.     Q       W                   W                 
---------------------|-------------------|-------------------|
---------------------|-------------------|-------------------|
---------------------|-------------------|-------------------|
--3------3------2----|--0----------------|--2----------------|


  W                   W                   W                   W                 
-------------------|-------------------|-------------------|-------------------|
-------------------|-------------------|-------------------|-------------------|
--2----------------|--L----------------|--0----------------|--L----------------|
-------------------|-------------------|-------------------|-------------------|


  W                   H        Q    Q       W                 
-------------------|---------------------|-------------------|
-------------------|---------------------|-------------------|
-------------------|---------------------|-------------------|
--3----------------|--3--------3----2----|--0----------------|


  W                   W                   H        Q    Q     
-------------------|-------------------|---------------------|
-------------------|-------------------|---------------------|
-------------------|-------------------|---------------------|
--2----------------|--3----------------|--L--------3----2----|


  W                   W                   W                 
-------------------|-------------------|-------------------|
-------------------|-------------------|-------------------|
-------------------|-------------------|-------------------|
--0----------------|--2----------------|--0----------------|


  H        H           W                   W                 
--------------------|-------------------|-------------------|
-----------0--------|-------------------|-------------------|
--------------------|--3----------------|--L----------------|
--L-----------------|-------------------|-------------------|


  W                   H        H           W                 
-------------------|--------------------|-------------------|
-------------------|-----------0--------|-------------------|
-------------------|--------------------|--3----------------|
--0----------------|--L-----------------|-------------------|


  W                   W                   H        H         
-------------------|-------------------|--------------------|
-------------------|-------------------|-----------0--------|
--2----------------|-------------------|--------------------|
-------------------|--0----------------|--L-----------------|


  W                   W                   W                 
-------------------|-------------------|-------------------|
-------------------|-------------------|-------------------|
--3----------------|--L----------------|-------------------|
-------------------|-------------------|--0----------------|


  H        H           W                   W                 
--------------------|-------------------|-------------------|
-----------0--------|-------------------|-------------------|
--------------------|--3----------------|--2----------------|
--L-----------------|-------------------|-------------------|


  H.           E  E     W                   H.           E  E   
---------------------|-------------------|---------------------|
---------------------|-------------------|---------------------|
------------------0--|--L----------------|------------------0--|
--0------------0-----|-------------------|--0------------0-----|


  W                   W                   W                   W                 
-------------------|-------------------|-------------------|-------------------|
-------------------|-------------------|-------------------|-------------------|
--L----------------|--2----------------|--L----------------|--0----------------|
-------------------|-------------------|-------------------|-------------------|


  W                   W                   Q.     Q.     Q     
-------------------|-------------------|---------------------|
-------------------|-------------------|---------------------|
--L----------------|-------------------|---------------------|
-------------------|--3----------------|--3------3------2----|


  W                   W                   W                   W                 
-------------------|-------------------|-------------------|-------------------|
-------------------|-------------------|-------------------|-------------------|
-------------------|-------------------|--2----------------|--L----------------|
--0----------------|--2----------------|-------------------|-------------------|


  W                   W                   W                 
-------------------|-------------------|-------------------|
-------------------|-------------------|-------------------|
--0----------------|--L----------------|-------------------|
-------------------|-------------------|--3----------------|


  H        Q    Q       W                   W                 
---------------------|-------------------|-------------------|
---------------------|-------------------|-------------------|
---------------------|-------------------|-------------------|
--3--------3----2----|--0----------------|--2----------------|


  W                   H        Q    Q       W                 
-------------------|---------------------|-------------------|
-------------------|---------------------|-------------------|
-------------------|---------------------|-------------------|
--3----------------|--L--------3----2----|--0----------------|


  W                   W                   H        H         
-------------------|-------------------|--------------------|
-------------------|-------------------|-----------0--------|
-------------------|-------------------|--------------------|
--2----------------|--0----------------|--L-----------------|


  W                   W                   W                 
-------------------|-------------------|-------------------|
-------------------|-------------------|-------------------|
--3----------------|--L----------------|-------------------|
-------------------|-------------------|--0----------------|


  H        H           W                   W                 
--------------------|-------------------|-------------------|
-----------0--------|-------------------|-------------------|
--------------------|--3----------------|--2----------------|
--L-----------------|-------------------|-------------------|


  W                   H        H           W                 
-------------------|--------------------|-------------------|
-------------------|-----------0--------|-------------------|
-------------------|--------------------|--3----------------|
--0----------------|--L-----------------|-------------------|


  W                   W                   H        H         
-------------------|-------------------|--------------------|
-------------------|-------------------|-----------0--------|
--L----------------|-------------------|--------------------|
-------------------|--0----------------|--L-----------------|


  W                   W                   H.           E  E   
-------------------|-------------------|---------------------|
-------------------|-------------------|---------------------|
--3----------------|--2----------------|------------------0--|
-------------------|-------------------|--0------------0-----|


  W                   H.           E  E     W                 
-------------------|---------------------|-------------------|
-------------------|---------------------|-------------------|
--L----------------|------------------0--|--L----------------|
-------------------|--0------------0-----|-------------------|


  W                   W                   W                   W                 
-------------------|-------------------|-------------------|-------------------|
-------------------|-------------------|-------------------|-------------------|
-------------------|-------------------|-------------------|-------------------|
-------------------|-------------------|-------------------|-------------------|


  W                   W                   W                   W                 
-------------------|-------------------|-------------------|-------------------|
-------------------|-------------------|-------------------|-------------------|
-------------------|-------------------|-------------------|-------------------|
-------------------|-------------------|-------------------|-------------------|


  W                   W                   W                   W                 
-------------------|-------------------|-------------------|-------------------|
-------------------|-------------------|--0----------------|-------------------|
-------------------|-------------------|-------------------|--3----------------|
--0----------------|--L----------------|-------------------|-------------------|


  W                   W                   W                 
-------------------|-------------------|-------------------|
-------------------|-------------------|--0----------------|
-------------------|-------------------|-------------------|
--0----------------|--L----------------|-------------------|


  H        H           W                   W                 
--------------------|-------------------|-------------------|
--------------------|-------------------|-------------------|
--3--------2--------|--3----------------|--L----------------|
--------------------|-------------------|-------------------|


  W                   W                   W                   W                 
-------------------|-------------------|-------------------|-------------------|
-------------------|--0----------------|-------------------|-------------------|
-------------------|-------------------|--3----------------|-------------------|
--0----------------|-------------------|-------------------|--0----------------|


  W                   W                   W                 
-------------------|-------------------|-------------------|
--0----------------|-------------------|-------------------|
-------------------|--2----------------|-------------------|
-------------------|-------------------|--0----------------|


  H        H           W                   W                 
--------------------|-------------------|-------------------|
-----------0--------|-------------------|-------------------|
--------------------|--3----------------|--L----------------|
--L-----------------|-------------------|-------------------|


  W                   H        H           W                 
-------------------|--------------------|-------------------|
-------------------|-----------0--------|-------------------|
-------------------|--------------------|--3----------------|
--0----------------|--L-----------------|-------------------|


  W                   W                   H        H         
-------------------|-------------------|--------------------|
-------------------|-------------------|-----------0--------|
--2----------------|-------------------|--------------------|
-------------------|--0----------------|--L-----------------|


  W                   W                   W                 
-------------------|-------------------|-------------------|
-------------------|-------------------|-------------------|
--3----------------|--L----------------|-------------------|
-------------------|-------------------|--0----------------|


  H        H           W                   W                 
--------------------|-------------------|-------------------|
-----------0--------|-------------------|-------------------|
--------------------|--3----------------|--2----------------|
--L-----------------|-------------------|-------------------|


  H.           E  E     W                   H.           E  E   
---------------------|-------------------|---------------------|
---------------------|-------------------|---------------------|
------------------0--|--L----------------|------------------0--|
--0------------0-----|-------------------|--0------------0-----|


  W                   H.           E  E     W                 
-------------------|---------------------|-------------------|
-------------------|---------------------|-------------------|
--L----------------|------------------0--|--L----------------|
-------------------|--0------------0-----|-------------------|


  H.           E  E     W                   W                  
---------------------|-------------------|-------------------||
---------------------|-------------------|-------------------||
------------------0--|--L----------------|--L----------------||
--0------------0-----|-------------------|-------------------||




Duration Legend
---------------
W - whole
H - half
Q - quarter
E - 8th
S - 16th
T - 32nd
X - 64th
. - note dotted
|-n-|  - n-tuplets


Tablature Legend
----------------
L - tied note
x - dead note
g - grace note
(n) - ghost note
> - accentuded note
NH - natural harmonic
AH - artificial harmonic
TH - tapped harmonic
SH - semi harmonic
PH - pitch harmonic
h - hammer on
p - pull off
b - bend
br - bendRelease
pb - preBend
pbr - preBendRelease
brb - bendReleaseBend
\n/ - tremolo bar dip
\n - tremolo bar dive
-/n - tremolo bar Release up
/n\ - tremolo bar inverted dip
/n - tremolo bar return
-\n - tremolo bar Release down
S - shift slide
s - legato slide
/ -  slide into from below or out of upwards
\ -  slide into from above or out of downwards
~ - vibrato
W - wide vibrato
tr - trill
TP - tremolo picking
T - tapping
S - slap
P - pop
< - fade in
^ - brush up
v - brush down

            
            
Suggest correction
Creating personal tab
Creating personal tab
You can edit any tab online and save it as your Personal.

You can edit, replace or remove any tab part or add personal notes – all changes will be seen only by you.

Personal tabs can be accessed anytime from any device, even offline.
Learn more »
Give kudos to tab author, rate the tab!
1 2 3 4 5
comments
print report bad tab
guest
You may want to rate the tab now too:
select rating
Wanna post a correction for this tab? Suggest correction