Oops, an error
Loading. Please wait.

Knights Of The 21St Century bass

version 1
version 1

Whole song

Interactive

430 views 1 this week
no commentswrite comment
1 2 3 4 5
3 more votes to show rating
add to favorites
×
Save as Personal and add changes to this tab that will be seen only by you. Learn more ›
×
You can save this tab as Personal to edit and correct it or add notes. All changes will be seen only by you. Learn more »
launch autoscroll
font size
0
reset
guitar tuner
edit
Autoscroll
slow
fast
+/-
esc
set tempo
stop
Knights of the 21th Century                           

Transcribed by an unregistered user
HammerFall
Bass (A# D# G# C# F#)
...



      Q    Q    Q    Q       Q    Q    Q    Q       Q    Q    Q    Q     
F#||----------------------|----------------------|----------------------|
C#||----------------------|----------------------|----------------------|
G#||------------2---------|-------2----0----2----|------------2---------|
D#||--0----3---------0----|--3-------------------|--0----3---------0----|
A#||----------------------|----------------------|----------------------|


  Q    Q    Q    Q       Q    Q    Q    Q       Q    Q    Q    Q     
----------------------|----------------------|----------------------|
----------------------|----------------------|----------------------|
-------2--------------|------------3---------|-----------------3----|
--3---------2----3----|-------3--------------|--3----0----3---------|
----------------------|--1--------------1----|----------------------|


  Q    Q    Q    Q       Q    Q    Q    Q       Q    Q    Q    Q     
----------------------|----------------------|----------------------|
----------------------|------------1---------|------------0---------|
------------3---------|-------3---------3----|-------0--------------|
-------3--------------|--3-------------------|----------------------|
--1--------------1----|----------------------|--3--------------3----|


  Q    Q    Q    Q       Q    Q    Q    Q       Q    Q    Q    Q     
----------------------|----------------------|----------------------|
-------0--------------|----------------------|-------0--------------|
--0---------2----0----|------------2---------|------------2---------|
----------------------|--0----3---------0----|--3--------------3----|
----------------------|----------------------|----------------------|


  Q    Q    Q    Q       Q    Q    Q    Q       Q    Q    Q    Q     
----------------------|----------------------|----------------------|
----------------------|----------------------|----------------------|
------------2---------|-------2----0----2----|------------2---------|
--0----3---------0----|--3-------------------|--0----3---------0----|
----------------------|----------------------|----------------------|


  Q    Q    Q    Q       Q    Q    Q    Q       Q    Q    Q    Q     
----------------------|----------------------|----------------------|
----------------------|----------------------|----------------------|
-------2--------------|------------3---------|-----------------3----|
--3---------2----3----|-------3--------------|--3----0----3---------|
----------------------|--1--------------1----|----------------------|


  Q    Q    Q    Q       Q    Q    Q    Q       Q    Q    Q    Q     
----------------------|----------------------|----------------------|
----------------------|------------1---------|------------0---------|
------------3---------|-------3---------3----|-------0--------------|
-------3--------------|--3-------------------|----------------------|
--1--------------1----|----------------------|--3--------------3----|


  Q    Q    Q    Q       Q    Q    Q    Q       Q    Q    Q    Q     
----------------------|----------------------|----------------------|
-------0--------------|----------------------|-------0--------------|
--0---------2----0----|------------2---------|------------2---------|
----------------------|--0----3---------0----|--3--------------3----|
----------------------|----------------------|----------------------|


  Q    Q    Q    Q       Q    Q    Q    Q       Q    Q    Q    Q     
----------------------|----------------------|----------------------|
----------------------|----------------------|----------------------|
------------2---------|-------2----0----2----|------------2---------|
--0----3---------0----|--3-------------------|--0----3---------0----|
----------------------|----------------------|----------------------|


  Q    Q    Q    Q       Q    Q    Q    Q       Q    Q    Q    Q     
----------------------|----------------------|----------------------|
----------------------|----------------------|----------------------|
-------2--------------|------------3---------|-----------------3----|
--3---------2----3----|-------3--------------|--3----0----3---------|
----------------------|--1--------------1----|----------------------|


  Q    Q    Q    Q       Q    Q    Q    Q       Q    Q    Q    Q     
----------------------|----------------------|----------------------|
----------------------|------------1---------|------------0---------|
------------3---------|-------3---------3----|-------0--------------|
-------3--------------|--3-------------------|----------------------|
--1--------------1----|----------------------|--3--------------3----|


  Q    Q    Q    Q       Q    Q    Q    Q       Q    Q    Q    Q     
----------------------|----------------------|----------------------|
-------0--------------|----------------------|-------0--------------|
--0---------2----0----|------------2---------|------------2---------|
----------------------|--0----3---------0----|--3--------------2----|
----------------------|----------------------|----------------------|


  W                   W                   W                 
-------------------|-------------------|-------------------|
-------------------|-------------------|-------------------|
-------------------|-------------------|-------------------|
-------------------|-------------------|-------------------|
-------------------|-------------------|-------------------|


  H.            S S S S    E  S S E  E  E  E  S S E   
------------------------|----------------------------|
------------------------|----------------------------|
---------------10-9-7-6-|---------8--7--------5-7-8--|
------------------------|--0--0-0-------0--0---------|
------------------------|----------------------------|


  E  S S E  E  E  E   S S S S    E  S S E  E  E  E  S S E   
------------------------------|----------------------------|
------------------------------|----------------------------|
---------8--7--------10-9-7-6-|---------8--7--------5-7-8--|
--0--0-0-------0--0-----------|--0--0-0-------0--0---------|
------------------------------|----------------------------|


  E  S S E  E  E  E   S S S S    E  S S E  E  S S E   S S S S  
------------------------------|-------------------------------|
------------------------------|-------------------------------|
---------8--7--------10-9-7-6-|----------------------10-9-7-6-|
--0--0-0-------0--0-----------|--0--0-0-0--0--0-0-0-----------|
------------------------------|-------------------------------|


  E  S S E  E  S S E   S S S S    E  S S E  E  S S E   S S S S  
-------------------------------|-------------------------------|
-------------------------------|-------------------------------|
----------------------10-9-7-6-|----------------------10-9-7-6-|
--0--0-0-0--0--0-0-0-----------|--8--8-8-8--8--8-8-8-----------|
-------------------------------|-------------------------------|


  E  S S E  E  Q     S S S S    E  S S E  E  S S E   S S S S  
-----------------------------|-------------------------------|
-----------------------------|-------------------------------|
---------------5----10-9-7-6-|----------------------10-9-7-6-|
--0--0-0-0--0----------------|--0--0-0-0--0--0-0-0-----------|
-----------------------------|-------------------------------|


  E  S S E  E  S S E   S S S S    E  S S E  E  S S E   S S S S  
-------------------------------|-------------------------------|
-------------------------------|-------------------------------|
----------------------10-9-7-6-|----------------------10-9-7-6-|
--0--0-0-0--0--0-0-0-----------|--8--8-8-8--8--8-8-8-----------|
-------------------------------|-------------------------------|


  E  S S E  E  Q    Q       H        H           Q.     E  H         
-------------------------|--------------------|---------------------|
-------------------------|--------------------|---------------------|
---------------5----2----|--3--------5--------|---------------------|
--0--0-0-0--0------------|--------------------|--5------3--L--------|
-------------------------|--------------------|---------------------|


  H.           Q       E  E  E  E  E  E  E  E     Q.     E  H         
--------------------|--------------------------|---------------------|
--------------------|--------------------------|---------------------|
--3------------3----|--2--2--2--2--2--2--2--2--|---------------------|
--------------------|--------------------------|--3------3--L--------|
--------------------|--------------------------|---------------------|


  E  Q    E  H           E  E  E  H        E     E  Q    H        E   
----------------------|-----------------------|----------------------|
----------------------|-----------------------|----------------------|
----------------------|-----------------------|-------------------L--|
----------------------|--3--3--3--3--------L--|----------------------|
--4--4----1--L--------|-----------------------|--4--4----6--------L--|


  Q.     H        E     E  Q    E  H           H        E  E  E  E   
---------------------|----------------------|-----------------------|
---------------------|----------------------|-----------------------|
---------------------|----------------------|--1--------1--1--1--5--|
--3------3--------L--|----------------------|-----------------------|
---------------------|--4--4----1--L--------|-----------------------|


  H.            S S S S    E  S S E  E  E  E  S S E   
------------------------|----------------------------|
------------------------|----------------------------|
--L------------10-9-7-6-|---------8--7--------5-7-8--|
------------------------|--0--0-0-------0--0---------|
------------------------|----------------------------|


  E  S S E  E  E  E   S S S S    E  S S E  E  E  E  S S E   
------------------------------|----------------------------|
------------------------------|----------------------------|
---------8--7--------10-9-7-6-|---------8--7--------5-7-8--|
--0--0-0-------0--0-----------|--0--0-0-------0--0---------|
------------------------------|----------------------------|


  E  S S E  E  E  E   S S S S    E  S S E  E  S S E   S S S S  
------------------------------|-------------------------------|
------------------------------|-------------------------------|
---------8--7--------10-9-7-6-|----------------------10-9-7-6-|
--0--0-0-------0--0-----------|--0--0-0-0--0--0-0-0-----------|
------------------------------|-------------------------------|


  E  S S E  E  S S E   S S S S    E  S S E  E  S S E   S S S S  
-------------------------------|-------------------------------|
-------------------------------|-------------------------------|
----------------------10-9-7-6-|----------------------10-9-7-6-|
--0--0-0-0--0--0-0-0-----------|--8--8-8-8--8--8-8-8-----------|
-------------------------------|-------------------------------|


  E  S S E  E  Q     S S S S    E  S S E  E  S S E   S S S S  
-----------------------------|-------------------------------|
-----------------------------|-------------------------------|
---------------5----10-9-7-6-|----------------------10-9-7-6-|
--0--0-0-0--0----------------|--0--0-0-0--0--0-0-0-----------|
-----------------------------|-------------------------------|


  E  S S E  E  S S E   S S S S    E  S S E  E  S S E   S S S S  
-------------------------------|-------------------------------|
-------------------------------|-------------------------------|
----------------------10-9-7-6-|----------------------10-9-7-6-|
--0--0-0-0--0--0-0-0-----------|--8--8-8-8--8--8-8-8-----------|
-------------------------------|-------------------------------|


  E  S S E  E  Q    Q       H        H           Q.     E  H         
-------------------------|--------------------|---------------------|
-------------------------|--------------------|---------------------|
---------------5----2----|--3--------5--------|---------------------|
--0--0-0-0--0------------|--------------------|--5------3--L--------|
-------------------------|--------------------|---------------------|


  H.           Q       E  E  E  E  E  E  E  E     Q.     E  H         
--------------------|--------------------------|---------------------|
--------------------|--------------------------|---------------------|
--3------------3----|--2--2--2--2--2--2--2--2--|---------------------|
--------------------|--------------------------|--3------3--L--------|
--------------------|--------------------------|---------------------|


  E  Q    E  H           E  E  E  H        E     E  Q    H        E   
----------------------|-----------------------|----------------------|
----------------------|-----------------------|----------------------|
----------------------|-----------------------|----------------------|
----------------------|--3--3--3--3--------L--|-------------------L--|
--4--4----1--L--------|-----------------------|--4--4----6-----------|


  Q.     H        E     E  Q    E  H           H        E  E  E  E   
---------------------|----------------------|-----------------------|
---------------------|----------------------|-----------------------|
---------------------|----------------------|--1--------1--1--1--5--|
--3------3--------L--|----------------------|-----------------------|
---------------------|--4--4----1--L--------|-----------------------|


  H.           Q       Q.     H        E     Q.     H        E   
--------------------|---------------------|---------------------|
--------------------|---------------------|---------------------|
--L-----------------|---------------------|---------------------|
--------------------|---------0--------L--|--L------0--------L--|
--------------------|---------------------|---------------------|


  Q.     H        E     Q.     H        E     E  E  E  H        E   
---------------------|---------------------|-----------------------|
---------------------|---------------------|-----------------------|
--3------3--------L--|---------------------|-----------------------|
---------------------|--0------------------|--0--0--0--0--------L--|
---------------------|---------3--------L--|-----------------------|


  E  E  E  H        E     E  E  E  H        E     E  E  E  E  E  E  E  E   
-----------------------|-----------------------|--------------------------|
-----------------------|-----------------------|--------------------------|
-----------------------|--3--3--3--3--------L--|--------------------------|
--0--0--0--0--------L--|-----------------------|--0--0--0-----------------|
-----------------------|-----------------------|-----------3--3--3--3--3--|


  W                   Q    Q    Q    Q       Q    Q    Q    Q     
-------------------|----------------------|----------------------|
-------------------|----------------------|----------------------|
-------------------|------------2---------|-------2----0----2----|
-------------------|--0----3---------0----|--3-------------------|
--L----------------|----------------------|----------------------|


  Q    Q    Q    Q       Q    Q    Q    Q       Q    Q    Q    Q     
----------------------|----------------------|----------------------|
----------------------|----------------------|----------------------|
------------2---------|-------2--------------|------------3---------|
--0----3---------0----|--3---------2----3----|-------3--------------|
----------------------|----------------------|--1--------------1----|


  Q    Q    Q    Q       Q    Q    Q    Q       Q    Q    Q    Q     
----------------------|----------------------|----------------------|
----------------------|----------------------|------------1---------|
-----------------3----|------------3---------|-------3---------3----|
--3----0----3---------|-------3--------------|--3-------------------|
----------------------|--1--------------1----|----------------------|


  Q    Q    Q    Q       Q    Q    Q    Q       Q    Q    Q    Q     
----------------------|----------------------|----------------------|
------------0---------|-------0--------------|----------------------|
-------0--------------|--0---------2----0----|------------2---------|
----------------------|----------------------|--0----3---------0----|
--3--------------3----|----------------------|----------------------|


  Q    Q    Q    Q       Q    Q    Q    Q       Q    Q    Q    Q     
----------------------|----------------------|----------------------|
-------0--------------|----------------------|----------------------|
------------2---------|------------2---------|-------2----0----2----|
--3--------------3----|--0----3---------0----|--3-------------------|
----------------------|----------------------|----------------------|


  Q    Q    Q    Q       Q    Q    Q    Q       Q    Q    Q    Q     
----------------------|----------------------|----------------------|
----------------------|----------------------|----------------------|
------------2---------|-------2--------------|------------3---------|
--0----3---------0----|--3---------2----3----|-------3--------------|
----------------------|----------------------|--1--------------1----|


  Q    Q    Q    Q       Q    Q    Q    Q       Q    Q    Q    Q     
----------------------|----------------------|----------------------|
----------------------|----------------------|------------1---------|
-----------------3----|------------3---------|-------3---------3----|
--3----0----3---------|-------3--------------|--3-------------------|
----------------------|--1--------------1----|----------------------|


  Q    Q    Q    Q       Q    Q    Q    Q       Q    Q    Q    Q     
----------------------|----------------------|----------------------|
------------0---------|-------0--------------|----------------------|
-------0--------------|--0---------2----0----|------------2---------|
----------------------|----------------------|--0----3---------0----|
--3--------------3----|----------------------|----------------------|


  Q    Q    Q    Q       H.           S S E     H        E.  E.  E   
----------------------|----------------------|----------------------|
-------0--------------|----------------------|-----------0----------|
------------2---------|----------------------|---------------0---2--|
--3--------------3----|---------------3-5-0--|----------------------|
----------------------|----------------------|----------------------|


  S E.  H        S S E     H        E.  E.  E   
------------------------|----------------------|
------------------------|-----------0----------|
------------------------|---------------0---2--|
--2--------------3-5-0--|----------------------|
------------------------|----------------------|


  S T T S T T S T T S T T S T T S T T S S E   
---------------------------------------------|
---------------------------------------------|
---------------------------------------------|
--2-2-2-2-2-2-2-2-2-2-2-2-2-2-2-2-2-2-3-5-0--|
---------------------------------------------|


  S T T S T T S T T S T T E.  E.  E   
-------------------------------------|
--------------------------0----------|
------------------------------0---2--|
--2-2-2-2-2-2-2-2-2-2-2-2------------|
-------------------------------------|


  S T T S T T S T T S T T S T T S T T S S E   
---------------------------------------------|
---------------------------------------------|
---------------------------------------------|
--2-2-2-2-2-2-2-2-2-2-2-2-2-2-2-2-2-2-3-5-0--|
---------------------------------------------|


  S T T S T T S T T S T T E.  E.  E  E.  E.  E   
------------------------------------------------|
--------------------------0---------------------|
------------------------------0---2--3---2---0--|
--2-2-2-2-2-2-2-2-2-2-2-2-----------------------|
------------------------------------------------|


  S T T S T T S T T S T T S T T S T T S S E   
---------------------------------------------|
---------------------------------------------|
---------------------------------------------|
--2-2-2-2-2-2-2-2-2-2-2-2-2-2-2-2-2-2-3-5-0--|
---------------------------------------------|


  S T T S T T S T T S T T E.  E.  E   
-------------------------------------|
--------------------------0----------|
------------------------------0---2--|
--2-2-2-2-2-2-2-2-2-2-2-2------------|
-------------------------------------|


  S T T S T T S T T S T T S T T S T T S S E   
---------------------------------------------|
---------------------------------------------|
---------------------------------------------|
--2-2-2-2-2-2-2-2-2-2-2-2-2-2-2-2-2-2-3-5-0--|
---------------------------------------------|


  S T T S T T S T T S T T E.  E.  E     H        H         
-------------------------------------|--------------------|
--------------------------0----------|--------------------|
------------------------------0---2--|-----------3--------|
--2-2-2-2-2-2-2-2-2-2-2-2------------|--0-----------------|
-------------------------------------|--------------------|


  H        Q    Q       H        H           Q.     E  H         
---------------------|--------------------|---------------------|
--0------------------|--------------------|--0------------------|
---------------------|-----------3--------|---------3--2--------|
-----------3----2----|--0-----------------|---------------------|
---------------------|--------------------|---------------------|


  S T T S T T S T T S T T S T T S T T S S E   
---------------------------------------------|
---------------------------------------------|
---------------------------------------------|
--2-2-2-2-2-2-2-2-2-2-2-2-2-2-2-2-2-2-3-5-0--|
---------------------------------------------|


  S T T S T T S T T S T T E.  E.  E   
-------------------------------------|
--------------------------0----------|
------------------------------0---2--|
--2-2-2-2-2-2-2-2-2-2-2-2------------|
-------------------------------------|


  S T T S T T S T T S T T S T T S T T S S E   
---------------------------------------------|
---------------------------------------------|
---------------------------------------------|
--2-2-2-2-2-2-2-2-2-2-2-2-2-2-2-2-2-2-3-5-0--|
---------------------------------------------|


  S T T S T T S T T S T T E.  E.  E  E.  E.  E     H        H         
------------------------------------------------|--------------------|
--------------------------0---------------------|--------------------|
------------------------------0---2--3---2---0--|-----------3--------|
--2-2-2-2-2-2-2-2-2-2-2-2-----------------------|--0-----------------|
------------------------------------------------|--------------------|


  H        Q    Q       H        H           Q.     E  H         
---------------------|--------------------|---------------------|
--0------------------|--------------------|--0------------------|
---------------------|-----------3--------|---------3--2--------|
-----------3----2----|--0-----------------|---------------------|
---------------------|--------------------|---------------------|


  H        H           H        Q    Q       H        H         
--------------------|---------------------|--------------------|
--------------------|--0------------------|--------------------|
-----------3--------|---------------------|-----------3--------|
--0-----------------|-----------3----2----|--0-----------------|
--------------------|---------------------|--------------------|


  H.           Q       Q.     H        E     Q.     H        E   
--------------------|---------------------|---------------------|
--------------------|---------------------|---------------------|
--2-----------------|---------------------|---------------------|
--------------------|---------0--------L--|--L------0--------L--|
--------------------|---------------------|---------------------|


  Q.     H        E     Q.     H        E     E  E  E  H        E   
---------------------|---------------------|-----------------------|
---------------------|---------------------|-----------------------|
--3------3--------L--|---------------------|-----------------------|
---------------------|--0------------------|--0--0--0--0--------L--|
---------------------|---------3--------L--|-----------------------|


  E  E  E  H        E     E  E  E  H        E     E  E  E  E  E  E  H         
-----------------------|-----------------------|-----------------------------|
-----------------------|-----------------------|-----------------------------|
-----------------------|--3--3--3--3--------L--|-----------------------------|
--0--0--0--0--------L--|-----------------------|--0--0--0--------------------|
-----------------------|-----------------------|-----------3--3--3--3--------|


  Q.     E  H           E  Q    E  H           E  E  E  H        E   
---------------------|----------------------|-----------------------|
---------------------|----------------------|-----------------------|
---------------------|----------------------|-----------------------|
--3------3--L--------|----------------------|--3--3--3--3--------L--|
---------------------|--4--4----1--L--------|-----------------------|


  E  Q    H        E     Q.     H        E     E  Q    E  H         
----------------------|---------------------|----------------------|
----------------------|---------------------|----------------------|
----------------------|---------------------|----------------------|
----------------------|--3------3--------L--|----------------------|
--4--4----6--------L--|---------------------|--4--4----1--L--------|


  H        E  E  E  E     W                   Q    E  H        E   
-----------------------|-------------------|----------------------|
-----------------------|-------------------|----------------------|
--1--------1--1--1--5--|--L----------------|----------------------|
-----------------------|-------------------|--3----3--3--------L--|
-----------------------|-------------------|----------------------|


  E  E  E  E  H           E  E  E  H        E     E  E  E  H        E   
-----------------------|-----------------------|-----------------------|
-----------------------|-----------------------|-----------------------|
--------------L--------|-----------------------|-----------------------|
-----------------------|--3--3--3--3--------L--|-----------------------|
--4--4-----1--L--------|-----------------------|--4--4-----6--------L--|


  Q    E  Q    Q.        E  Q    E  H           H        E  E  E  E   
----------------------|----------------------|-----------------------|
----------------------|----------------------|-----------------------|
----------------------|----------------------|--1--------1--1--1--5--|
--3----3--3-----------|----------------------|-----------------------|
----------------------|--4--4----1--L--------|-----------------------|


  H.            S S S S    E  E  E  Q    Q.       
------------------------|-----------------------||
------------------------|-----------------------||
--L------------10-9-7-6-|--7--7--7--7-----------||
------------------------|-----------------------||
------------------------|-----------------------||




Duration Legend
---------------
W - whole
H - half
Q - quarter
E - 8th
S - 16th
T - 32nd
X - 64th
. - note dotted
|-n-|  - n-tuplets


Tablature Legend
----------------
L - tied note
x - dead note
g - grace note
(n) - ghost note
> - accentuded note
NH - natural harmonic
AH - artificial harmonic
TH - tapped harmonic
SH - semi harmonic
PH - pitch harmonic
h - hammer on
p - pull off
b - bend
br - bendRelease
pb - preBend
pbr - preBendRelease
brb - bendReleaseBend
\n/ - tremolo bar dip
\n - tremolo bar dive
-/n - tremolo bar Release up
/n\ - tremolo bar inverted dip
/n - tremolo bar return
-\n - tremolo bar Release down
S - shift slide
s - legato slide
/ -  slide into from below or out of upwards
\ -  slide into from above or out of downwards
~ - vibrato
W - wide vibrato
tr - trill
TP - tremolo picking
T - tapping
S - slap
P - pop
< - fade in
^ - brush up
v - brush down

            
            
Suggest correction
Creating personal tab
Creating personal tab
You can edit any tab online and save it as your Personal.

You can edit, replace or remove any tab part or add personal notes – all changes will be seen only by you.

Personal tabs can be accessed anytime from any device, even offline.
Learn more »
Give kudos to tab author, rate the tab!
1 2 3 4 5
comments
print report bad tab
guest
You may want to rate the tab now too:
select rating
Wanna post a correction for this tab? Suggest correction