Oops, an error
Loading. Please wait.

On The Edge Of Honor bass

version 1
version 1

Whole song

Interactive

187 views 1 this week
no commentswrite comment
1 2 3 4 5
3 more votes to show rating
add to favorites
×
Save as Personal and add changes to this tab that will be seen only by you. Learn more ›
×
You can save this tab as Personal to edit and correct it or add notes. All changes will be seen only by you. Learn more »
launch autoscroll
font size
0
reset
guitar tuner
edit
Autoscroll
slow
fast
+/-
esc
set tempo
stop
On the Edge of Honor                               

Transcribed by an unregistered user
HammerFall
Bass (D# G# C# F#)



      W                   S S S S S S S S S S S S S S S S  
F#||-------------------|----------------------------------|
C#||-------------------|----------------------------------|
G#||-------------------|--0-0-0-0-0-0-0-0-0-0-0-0-0-0-0-0-|
D#||-------------------|----------------------------------|


  S S S S S S S S S S S S S S S S    S S S S S S S S S S S S S S S S  
----------------------------------|----------------------------------|
----------------------------------|----------------------------------|
--0-0-0-0-0-0-0-0-0-0-0-0-0-0-0-0-|--0-0-0-0-0-0-0-0-0-0-0-0-0-0-0-0-|
----------------------------------|----------------------------------|


  S S S S S S S S S S S S S S S S    S S S S S S S S S S S S S S S S  
----------------------------------|----------------------------------|
----------------------------------|----------------------------------|
--0-0-0-0-0-0-0-0-0-0-0-0-0-0-0-0-|--0-0-0-0-0-0-0-0-0-0-0-0-0-0-0-0-|
----------------------------------|----------------------------------|


  S S S S S S S S S S S S S S S S    S S S S S S S S S S S S S S S S  
----------------------------------|----------------------------------|
----------------------------------|----------------------------------|
--0-0-0-0-0-0-0-0-0-0-0-0-0-0-0-0-|--0-0-0-0-0-0-0-0-0-0-0-0-0-0-0-0-|
----------------------------------|----------------------------------|


  S S S S S S S S S S S S S S S S    S S S S S S S S S S S S S S S S  
----------------------------------|----------------------------------|
----------------------------------|----------------------------------|
--0-0-0-0-0-0-0-0-0-0-0-0-0-0-0-0-|--0-0-0-0-0-0-0-0-0-0-0-0-0-0-0-0-|
----------------------------------|----------------------------------|


  S S S S S S S S S S S S S S S S    S S S S S S S S S S S S S S S S  
----------------------------------|----------------------------------|
----------------------------------|----------------------------------|
--0-0-0-0-0-0-0-0-0-0-0-0-0-0-0-0-|----------------------------------|
----------------------------------|--3-3-3-3-3-3-3-3-3-3-3-3-3-3-3-3-|


  S S S S S S S S E  E  E  S S    S S S S S S S S S S S S S S S S  
-------------------------------|----------------------------------|
-------------------------------|----------------------------------|
--0-0-0-0-0-0-0-0----------0-0-|--0-0-0-0-0-0-0-0-0-0-0-0-0-0-0-0-|
------------------1--1--3------|----------------------------------|


  S S S S S S S S S S S S S S S S    S S S S S S S S S S S S S S S S  
----------------------------------|----------------------------------|
----------------------------------|----------------------------------|
--0-0-0-0-0-0-0-0-0-0-0-0-0-0-0-0-|----------------------------------|
----------------------------------|--3-3-3-3-3-3-3-3-3-3-3-3-3-3-3-3-|


  S S S S S S S S E  E  E  S S    S S S S S S S S S S S S S S S S  
-------------------------------|----------------------------------|
-------------------------------|----------------------------------|
--0-0-0-0-0-0-0-0----------0-0-|--0-0-0-0-0-0-0-0-0-0-0-0-0-0-0-0-|
------------------1--1--3------|----------------------------------|


  S S S S S S S S S S S S S S S S    S S S S S S S S S S S S S S S S  
----------------------------------|----------------------------------|
----------------------------------|----------------------------------|
--0-0-0-0-0-0-0-0-0-0-0-0-0-0-0-0-|----------------------------------|
----------------------------------|--3-3-3-3-3-3-3-3-3-3-3-3-3-3-3-3-|


  S S S S S S S S E  E  E  S S    S S S S S S S S S S S S S S S S  
-------------------------------|----------------------------------|
-------------------------------|----------------------------------|
--0-0-0-0-0-0-0-0----------0-0-|--0-0-0-0-0-0-0-0-0-0-0-0-0-0-0-0-|
------------------1--1--3------|----------------------------------|


  S S S S S S S S S S S S S S S S    S S S S S S S S S S S S S S S S  
----------------------------------|----------------------------------|
----------------------------------|----------------------------------|
--0-0-0-0-0-0-0-0-0-0-0-0-0-0-0-0-|----------------------------------|
----------------------------------|--3-3-3-3-3-3-3-3-3-3-3-3-3-3-3-3-|


  S S S S S S S S E  E  E  S S    S S S S S S S S S S S S S S S S  
-------------------------------|----------------------------------|
-------------------------------|----------------------------------|
--0-0-0-0-0-0-0-0----------0-0-|----------------------------------|
------------------1--1--3------|--1-1-1-1-1-1-1-1-1-1-1-1-1-1-1-1-|


  S S S S S S S S S S S S S S S S    S S S S S S S S S S S S S S S S  
----------------------------------|----------------------------------|
----------------------------------|----------------------------------|
------------------------------0-0-|--0-0-0-0-0-0-0-0-0-0-0-0-0-0-0-0-|
--1-1-1-1-1-1-1-1-3-3-3-3-3-3-----|----------------------------------|


  S S S S S S S S S S S S S S S S    S S S S S S S S S S S S S S S S  
----------------------------------|----------------------------------|
----------------------------------|----------------------------------|
--0-0-0-0-0-0-0-0-----------------|----------------------------------|
------------------3-3-3-3-3-3-1-1-|--1-1-1-1-1-1-1-1-1-1-1-1-1-1-1-1-|


  S S S S S S S S E.  E.  E     E  E  E  E  E  E  E  E   
-----------------------------|--------------------------|
-----------------------------|--------------------------|
-----------------------------|--------------------------|
--1-1-1-1-1-1-1-1-1---1---3--|--L--3--3--3--3--3--3--3--|


  E  E  E  E  E  E  Q       S S S S S S S S S S S S S S S S  
-------------------------|----------------------------------|
-------------------------|----------------------------------|
-------------------------|--0-0-0-0-0-0-0-0-0-0-0-0-0-0-0-0-|
--0--0--0--0--0----------|----------------------------------|


  S S S S S S S S S S S S S S S S    S S S S S S S S S S S S S S S S  
----------------------------------|----------------------------------|
----------------------------------|----------------------------------|
--0-0-0-0-0-0-0-0-0-0-0-0-0-0-0-0-|--0-0-0-0-0-0-0-0-0-0-0-0-0-0-0-0-|
----------------------------------|----------------------------------|


  S S S S S S S S S S S S S S S S    S S S S S S S S S S S S S S S S  
----------------------------------|----------------------------------|
----------------------------------|----------------------------------|
--0-0-0-0-0-0-0-0-0-0-0-0-0-0-0-0-|--0-0-0-0-0-0-0-0-0-0-0-0-0-0-0-0-|
----------------------------------|----------------------------------|


  S S S S S S S S S S S S S S S S    S S S S S S S S S S S S S S S S  
----------------------------------|----------------------------------|
----------------------------------|----------------------------------|
--0-0-0-0-0-0-0-0-0-0-0-0-0-0-0-0-|----------------------------------|
----------------------------------|--3-3-3-3-3-3-3-3-3-3-3-3-3-3-3-3-|


  S S S S S S S S E  E  E  S S    S S S S S S S S S S S S S S S S  
-------------------------------|----------------------------------|
-------------------------------|----------------------------------|
--0-0-0-0-0-0-0-0----------0-0-|--0-0-0-0-0-0-0-0-0-0-0-0-0-0-0-0-|
------------------1--1--3------|----------------------------------|


  S S S S S S S S S S S S S S S S    S S S S S S S S S S S S S S S S  
----------------------------------|----------------------------------|
----------------------------------|----------------------------------|
--0-0-0-0-0-0-0-0-0-0-0-0-0-0-0-0-|----------------------------------|
----------------------------------|--3-3-3-3-3-3-3-3-3-3-3-3-3-3-3-3-|


  S S S S S S S S E  E  E  S S    S S S S S S S S S S S S S S S S  
-------------------------------|----------------------------------|
-------------------------------|----------------------------------|
--0-0-0-0-0-0-0-0----------0-0-|----------------------------------|
------------------1--1--3------|--1-1-1-1-1-1-1-1-1-1-1-1-1-1-1-1-|


  S S S S S S S S S S S S S S S S    S S S S S S S S S S S S S S S S  
----------------------------------|----------------------------------|
----------------------------------|----------------------------------|
------------------------------0-0-|--0-0-0-0-0-0-0-0-0-0-0-0-0-0-0-0-|
--1-1-1-1-1-1-1-1-3-3-3-3-3-3-----|----------------------------------|


  S S S S S S S S S S S S S S S S    S S S S S S S S S S S S S S S S  
----------------------------------|----------------------------------|
----------------------------------|----------------------------------|
--0-0-0-0-0-0-0-0-----------------|----------------------------------|
------------------3-3-3-3-3-3-1-1-|--1-1-1-1-1-1-1-1-1-1-1-1-1-1-1-1-|


  S S S S S S S S E.  E.  E     E  E  E  E  E  E  E  E   
-----------------------------|--------------------------|
-----------------------------|--------------------------|
-----------------------------|--------------------------|
--1-1-1-1-1-1-1-1-1---1---3--|--L--3--3--3--3--3--3--3--|


  E  E  E  E  Q    Q       E  E  S S E  E  E  S S E   
------------------------|----------------------------|
------------------------|----------------------------|
------------------------|--0--0--0-0-0--0--0--0-0-0--|
--0--0--0--0--0----0----|----------------------------|


  E  E  S S E  E  E  S S E     E  E  S S E  E  E  S S E   
----------------------------|----------------------------|
----------------------------|----------------------------|
----------------------------|----------------------------|
--1--1--1-1-1--1--1--1-1-1--|--3--3--3-3-3--3--3--3-3-3--|


  E  E  S S E  E  E  S S E     E  E  S S E  E  E  S S E   
----------------------------|----------------------------|
----------------------------|----------------------------|
--3--3--3-3-3---------------|--0--0--0-0-0--0--0--0-0-0--|
---------------0--0--0-0-0--|----------------------------|


  E  E  S S E  E  E  S S E     E  E  S S E  E  E  S S E   
----------------------------|----------------------------|
----------------------------|----------------------------|
----------------------------|--3--3--3-3-3--3--3--3-3-3--|
--1--1--1-1-1--1--1--1-1-1--|----------------------------|


  E  E  S S E  E  E  S S E     S S S S S S S S S S S S S S S S  
----------------------------|----------------------------------|
----------------------------|----------------------------------|
----------------------------|--0-0-0-0-0-0-0-0-0-0-0-0-0-0-0-0-|
--0--0--0-0-0--0--0--0-0-0--|----------------------------------|


  S S S S S S S S S S S S S S S S    S S S S S S S S S S S S S S S S  
----------------------------------|----------------------------------|
----------------------------------|----------------------------------|
----------------------------------|----------------------------------|
--1-1-1-1-1-1-1-1-1-1-1-1-1-1-1-1-|--3-3-3-3-3-3-3-3-3-3-3-3-3-3-3-3-|


  S S S S S S S S S S S S S S S S    S S S S S S S S S S S S S S S S  
----------------------------------|----------------------------------|
----------------------------------|----------------------------------|
--3-3-3-3-3-3-3-3-----------------|--0-0-0-0-0-0-0-0-0-0-0-0-0-0-0-0-|
------------------0-0-0-0-0-0-0-0-|----------------------------------|


  S S S S S S S S S S S S S S S S    S S S S S S S S S S S S S S S S  
----------------------------------|----------------------------------|
----------------------------------|----------------------------------|
----------------------------------|--3-3-3-3-3-3-3-3-3-3-3-3-3-3-3-3-|
--1-1-1-1-1-1-1-1-1-1-1-1-1-1-1-1-|----------------------------------|


  S S S S S S S S S S S S S S S S    W                   W                 
----------------------------------|-------------------|-------------------|
----------------------------------|-------------------|-------------------|
----------------------------------|-------------------|-------------------|
--0-0-0-0-0-0-0-0-0-0-0-0-0-0-0-0-|-------------------|-------------------|


  W                   W                   E  S E  S E  E  S E  S E   
-------------------|-------------------|----------------------------|
-------------------|-------------------|----------------------------|
-------------------|-------------------|----------------------------|
-------------------|-------------------|--0--0-0--0-0--0--0-0--0-0--|


  E  S E  S E  E  S E  S E     E  S E  S E  E  S E  S E   
----------------------------|----------------------------|
----------------------------|----------------------------|
--3--3-3--3-3--3--3-3--3-3--|--5--5-5--5-5--5--5-5--5-5--|
----------------------------|----------------------------|


  E  S E  S E  E  S E  S E     E  S E  S E  E  S E  S E   
----------------------------|----------------------------|
----------------------------|----------------------------|
----------------------------|--3--3-3--3-3--3--3-3--3-3--|
--3--3-3--3-3--3--3-3--3-3--|----------------------------|


  E  S E  S E  E  S E  S E     E  S E  S E  E  S E  S E   
----------------------------|----------------------------|
----------------------------|----------------------------|
--0--0-0--0-0--0--0-0--0-0--|--5--5-5--5-5--5--5-5--5-5--|
----------------------------|----------------------------|


  E  S E  S E  E  S E  S E     S S S S S S S S S S S S S S S S  
----------------------------|----------------------------------|
----------------------------|----------------------------------|
--5--5-5--5-5--5--5-5--5-5--|----------------------------------|
----------------------------|--0-0-0-0-0-0-0-0-0-0-0-0-0-0-0-0-|


  S S S S S S S S S S S S S S S S    S S S S S S S S S S S S S S S S  
----------------------------------|----------------------------------|
----------------------------------|----------------------------------|
--3-3-3-3-3-3-3-3-3-3-3-3-3-3-3-3-|--5-5-5-5-5-5-5-5-5-5-5-5-5-5-5-5-|
----------------------------------|----------------------------------|


  S S S S S S S S S S S S S S S S    S S S S S S S S S S S S S S S S  
----------------------------------|----------------------------------|
----------------------------------|----------------------------------|
----------------------------------|--3-3-3-3-3-3-3-3-3-3-3-3-3-3-3-3-|
--3-3-3-3-3-3-3-3-3-3-3-3-3-3-3-3-|----------------------------------|


  S S S S S S S S S S S S S S S S    S S S S S S S S S S S S S S S S  
----------------------------------|----------------------------------|
----------------------------------|----------------------------------|
----------------------------------|--5-5-5-5-5-5-5-5-5-5-5-5-5-5-5-5-|
--5-5-5-5-5-5-5-5-5-5-5-5-5-5-5-5-|----------------------------------|


  S S S S S S S S H           E  E  E  E  E  E  E  E   
---------------------------|--------------------------|
---------------------------|--------------------------|
--5-5-5-5-5-5-5-5-5--------|--------------------------|
---------------------------|--2--2--2--2--2--2--2--0--|


  E  E  E  E  E  E  E  E     E  E  E  E  E  E  E  E   
--------------------------|--------------------------|
--------------------------|--------------------------|
--------------------------|--5--5--5--5--5--5--5--2--|
--0--0--0--0--0--0--0--0--|--------------------------|


  E  E  E  E   E   E  E  E     E  E  E  E  E  E  E  E   
----------------------------|--------------------------|
----------------------------|--------------------------|
--2--2--2--2s--9s--2--0-----|-----------------------2--|
-------------------------4--|--2--2--2--2--2--2--2-----|


  E  E  E  E  E  E  E  E     E  E  E  E  E  E  E  E   
--------------------------|--------------------------|
--------------------------|--2--2--2--2--2-----------|
--2--2--2--2--2--2--2--2--|-----------------5--5--4--|
--------------------------|--------------------------|


  E  E  E  E  S S S S S S S S    S S S S S S S S S S S S S S S S  
------------------------------|----------------------------------|
------------------------------|----------------------------------|
--4--4--4--4--4-4-2-2-0-0-----|----------------------------------|
--------------------------4-4-|--2-2-2-2-2-2-2-2-2-2-2-2-2-2-0-0-|


  S S S S S S S S S S S S S S S S    S S S S S S S S S S S S S S S S  
----------------------------------|----------------------------------|
----------------------------------|--0-0-0-0-0-0-0-0-0-0-0-0-0-0-----|
----------------------------------|------------------------------2-2-|
--0-0-0-0-0-0-0-0-0-0-0-0-0-0-0-0-|----------------------------------|


  S S S S S S S S S S S S S S S S    S S S S S S S S S S S S S S S S  
----------------------------------|----------------------------------|
----------------------------------|----------------------------------|
--2-2-2-2-2-2-2-2-2-2-0-0---------|----------------------5-5-4-4-2-2-|
--------------------------4-4-0-0-|--2-2-2-2-2-2-2-2-2-2-------------|


  S S S S S S S S S S S S S S S S    S S S S S S S S S S S S S S S S  
----------------------------------|----------------------------------|
----------------------------------|--2-2-2-2-2-2-2-2-2-2-0-0---------|
--2-2-2-2-2-2-2-2-2-2-2-2-2-2-2-2-|--------------------------4-4-4-4-|
----------------------------------|----------------------------------|


  W                   E  S E  S E  E  S E  S E     E  S E  S E  E  S E  S E   
-------------------|----------------------------|----------------------------|
-------------------|----------------------------|----------------------------|
--4----------------|----------------------------|--3--3-3--3-3--3--3-3--3-3--|
-------------------|--0--0-0--0-0--0--0-0--0-0--|----------------------------|


  E  S E  S E  E  S E  S E     E  S E  S E  E  S E  S E   
----------------------------|----------------------------|
----------------------------|----------------------------|
--5--5-5--5-5--5--5-5--5-5--|----------------------------|
----------------------------|--3--3-3--3-3--3--3-3--3-3--|


  E  S E  S E  E  S E  S E     E  S E  S E  E  S E  S E   
----------------------------|----------------------------|
----------------------------|----------------------------|
--3--3-3--3-3--3--3-3--3-3--|--0--0-0--0-0--0--0-0--0-0--|
----------------------------|----------------------------|


  E  S E  S E  E  S E  S E     E  S E  S E  E  S E  S E   
----------------------------|----------------------------|
----------------------------|----------------------------|
--5--5-5--5-5--5--5-5--5-5--|--5--5-5--5-5--5--5-5--5-5--|
----------------------------|----------------------------|


  S S S S S S S S S S S S S S S S    S S S S S S S S S S S S S S S S  
----------------------------------|----------------------------------|
----------------------------------|----------------------------------|
----------------------------------|--3-3-3-3-3-3-3-3-3-3-3-3-3-3-3-3-|
--0-0-0-0-0-0-0-0-0-0-0-0-0-0-0-0-|----------------------------------|


  S S S S S S S S S S S S S S S S    S S S S S S S S S S S S S S S S  
----------------------------------|----------------------------------|
----------------------------------|----------------------------------|
--5-5-5-5-5-5-5-5-5-5-5-5-5-5-5-5-|----------------------------------|
----------------------------------|--3-3-3-3-3-3-3-3-3-3-3-3-3-3-3-3-|


  S S S S S S S S S S S S S S S S    S S S S S S S S S S S S S S S S  
----------------------------------|----------------------------------|
----------------------------------|----------------------------------|
--3-3-3-3-3-3-3-3-3-3-3-3-3-3-3-3-|----------------------------------|
----------------------------------|--5-5-5-5-5-5-5-5-5-5-5-5-5-5-5-5-|


  S S S S S S S S S S S S S S S S    S S S S S S S S S S S S Q     
----------------------------------|-------------------------------|
----------------------------------|-------------------------------|
--5-5-5-5-5-5-5-5-5-5-5-5-5-5-5-5-|--5-5-5-5-5-5-5-5-5-5-5-5-5----|
----------------------------------|-------------------------------|


  E  E  Q    H           W                   Q    Q    Q.     E   
----------------------|-------------------|----------------------|
----------------------|-------------------|----------------------|
--0-------------------|-------------------|-------3----3------0--|
----------------------|-------------------|----------------------|


  E  Q.     Q.     E     E  Q.     Q.     E     E  Q.     Q.     E   
----------------------|----------------------|----------------------|
----------------------|----------------------|-------------------0--|
--L----------------0--|--L----------------0--|--L-------------------|
------------1---------|----------------------|----------------------|


  E  E  Q    Q.     E     E  Q.     E  E  E  E   
-----------------------|------------------------|
--L--------------------|------------------------|
--------3----3------0--|--L------------------0--|
-----------------------|------------1--1--3-----|


  S S S S S S S S S S S S S S S S    S S S S S S S S S S S S S S S S  
----------------------------------|----------------------------------|
----------------------------------|----------------------------------|
--0-0-0-0-0-0-0-0-0-0-0-0-0-0-0-0-|--0-0-0-0-0-0-0-0-0-0-0-0-0-0-0-0-|
----------------------------------|----------------------------------|


  S S S S S S S S S S S S S S S S    S S S S S S S S E  E  E  S S  
----------------------------------|-------------------------------|
----------------------------------|-------------------------------|
----------------------------------|--0-0-0-0-0-0-0-0----------0-0-|
--3-3-3-3-3-3-3-3-3-3-3-3-3-3-3-3-|------------------1--1--3------|


  S S S S S S S S S S S S S S S S    S S S S S S S S S S S S S S S S  
----------------------------------|----------------------------------|
----------------------------------|----------------------------------|
--0-0-0-0-0-0-0-0-0-0-0-0-0-0-0-0-|--0-0-0-0-0-0-0-0-0-0-0-0-0-0-0-0-|
----------------------------------|----------------------------------|


  S S S S S S S S S S S S S S S S    S S S S S S S S E  E  E  S S  
----------------------------------|-------------------------------|
----------------------------------|-------------------------------|
----------------------------------|--0-0-0-0-0-0-0-0----------0-0-|
--3-3-3-3-3-3-3-3-3-3-3-3-3-3-3-3-|------------------1--1--3------|


  S S S S S S S S S S S S S S S S    S S S S S S S S S S S S S S S S  
----------------------------------|----------------------------------|
----------------------------------|----------------------------------|
----------------------------------|------------------------------0-0-|
--1-1-1-1-1-1-1-1-1-1-1-1-1-1-1-1-|--1-1-1-1-1-1-1-1-3-3-3-3-3-3-----|


  S S S S S S S S S S S S S S S S    S S S S S S S S S S S S S S S S  
----------------------------------|----------------------------------|
----------------------------------|----------------------------------|
--0-0-0-0-0-0-0-0-0-0-0-0-0-0-0-0-|--0-0-0-0-0-0-0-0-----------------|
----------------------------------|------------------3-3-3-3-3-3-1-1-|


  S S S S S S S S S S S S S S S S    S S S S S S S S E.  E.  E   
----------------------------------|-----------------------------|
----------------------------------|-----------------------------|
----------------------------------|-----------------------------|
--1-1-1-1-1-1-1-1-1-1-1-1-1-1-1-1-|--1-1-1-1-1-1-1-1-1---1---3--|


  E  E  E  E  E  E  E  E     E  E  E  E  Q    Q     
--------------------------|------------------------|
--------------------------|------------------------|
--------------------------|------------------------|
--L--3--3--3--3--3--3--3--|--0--0--0--0--0----0----|


  E  E  S S E  E  E  S S E     E  E  S S E  E  E  S S E   
----------------------------|----------------------------|
----------------------------|----------------------------|
--0--0--0-0-0--0--0--0-0-0--|----------------------------|
----------------------------|--1--1--1-1-1--1--1--1-1-1--|


  E  E  S S E  E  E  S S E     E  E  S S E  E  E  S S E   
----------------------------|----------------------------|
----------------------------|----------------------------|
----------------------------|--3--3--3-3-3---------------|
--3--3--3-3-3--3--3--3-3-3--|---------------0--0--0-0-0--|


  E  E  S S E  E  E  S S E     E  E  S S E  E  E  S S E   
----------------------------|----------------------------|
----------------------------|----------------------------|
--0--0--0-0-0--0--0--0-0-0--|----------------------------|
----------------------------|--1--1--1-1-1--1--1--1-1-1--|


  E  E  S S E  E  E  S S E     E  E  S S E  E  E  S S E   
----------------------------|----------------------------|
----------------------------|----------------------------|
--3--3--3-3-3--3--3--3-3-3--|----------------------------|
----------------------------|--0--0--0-0-0--0--0--0-0-0--|


  S S S S S S S S S S S S S S S S    S S S S S S S S S S S S S S S S  
----------------------------------|----------------------------------|
----------------------------------|----------------------------------|
--0-0-0-0-0-0-0-0-0-0-0-0-0-0-0-0-|----------------------------------|
----------------------------------|--1-1-1-1-1-1-1-1-1-1-1-1-1-1-1-1-|


  S S S S S S S S S S S S S S S S    S S S S S S S S S S S S S S S S  
----------------------------------|----------------------------------|
----------------------------------|----------------------------------|
----------------------------------|--3-3-3-3-3-3-3-3-----------------|
--3-3-3-3-3-3-3-3-3-3-3-3-3-3-3-3-|------------------0-0-0-0-0-0-0-0-|


  S S S S S S S S S S S S S S S S    S S S S S S S S S S S S S S S S  
----------------------------------|----------------------------------|
----------------------------------|----------------------------------|
--0-0-0-0-0-0-0-0-0-0-0-0-0-0-0-0-|----------------------------------|
----------------------------------|--1-1-1-1-1-1-1-1-1-1-1-1-1-1-1-1-|


  S S S S S S S S S S S S S S S S    S S S S S S S S S S S S S S S S  
----------------------------------|----------------------------------|
----------------------------------|----------------------------------|
--3-3-3-3-3-3-3-3-3-3-3-3-3-3-3-3-|----------------------------------|
----------------------------------|--0-0-0-0-0-0-0-0-0-0-0-0-0-0-0-0-|


  Q    Q    Q.     E     E  Q.     Q.     E     E  E  Q    Q.     E   
----------------------|----------------------|-----------------------|
----------------------|-------------------0--|--L--------------------|
--0----------------0--|--L-------------------|--------3----3------0--|
----------------------|----------------------|-----------------------|


  E  Q.     E  E  E  E     Q    Q      Q    Q       H        E  E  E  E   
------------------------|------------------------|-----------------------|
------------------------|------------------------|-----------------------|
--L---------------------|------------------------|--------------------0--|
------------1--1--3--0--|--L----0s----12----L----|--L--------1--1--3-----|


  H        H          
--------------------||
--------------------||
--L-----------------||
--------------------||




Duration Legend
---------------
W - whole
H - half
Q - quarter
E - 8th
S - 16th
T - 32nd
X - 64th
. - note dotted
|-n-|  - n-tuplets


Tablature Legend
----------------
L - tied note
x - dead note
g - grace note
(n) - ghost note
> - accentuded note
NH - natural harmonic
AH - artificial harmonic
TH - tapped harmonic
SH - semi harmonic
PH - pitch harmonic
h - hammer on
p - pull off
b - bend
br - bendRelease
pb - preBend
pbr - preBendRelease
brb - bendReleaseBend
\n/ - tremolo bar dip
\n - tremolo bar dive
-/n - tremolo bar Release up
/n\ - tremolo bar inverted dip
/n - tremolo bar return
-\n - tremolo bar Release down
S - shift slide
s - legato slide
/ -  slide into from below or out of upwards
\ -  slide into from above or out of downwards
~ - vibrato
W - wide vibrato
tr - trill
TP - tremolo picking
T - tapping
S - slap
P - pop
< - fade in
^ - brush up
v - brush down

            
            
Suggest correction
Creating personal tab
Creating personal tab
You can edit any tab online and save it as your Personal.

You can edit, replace or remove any tab part or add personal notes – all changes will be seen only by you.

Personal tabs can be accessed anytime from any device, even offline.
Learn more »
Give kudos to tab author, rate the tab!
1 2 3 4 5
comments
print report bad tab
guest
You may want to rate the tab now too:
select rating
Wanna post a correction for this tab? Suggest correction