Oops, an error
Loading. Please wait.

Remember Yesterday bass

version 1
version 1

Whole song

Interactive

518 views 1 this week
no commentswrite comment
1 2 3 4 5
3 more votes to show rating
add to favorites
×
Save as Personal and add changes to this tab that will be seen only by you. Learn more ›
×
You can save this tab as Personal to edit and correct it or add notes. All changes will be seen only by you. Learn more »
launch autoscroll
font size
0
reset
guitar tuner
edit
Autoscroll
slow
fast
+/-
esc
set tempo
stop
tune down 1/2 step (Eb,Ab,Db,Gb)

Intro (0:32)/Verse
Gb|---------------------|
Db|---------------------|
Ab|---------------------|
Eb|-/5*------3*---1--5*-|

Gb|---------------------|
Db|---------------------|
Ab|---------------------|
Eb|-5*---3*---/10*---1--|

Gb|----------------------------------------|
Db|----------------------------------------|
Ab|-3*--/----------------------------------|
Eb|------3*---/10*---5*---1-3-5*---3*---1--|

Gb|-------------|
Db|-------------|
Ab|-------------|
Eb|-1-1-1-1-1-3-|


Chorus
Gb|-------------------------------|
Db|-------------------------------|
Ab|-----3---2-------------3--2----|
Eb|-0-----------0--2--4---------5-|

Gb|---------------|
Db|---------------|
Ab|---------------|
Eb|-3-/10~~~~~~5--| <- play every note from 10 to 5 while pulling down

Gb|-------------------------------|
Db|-------------------------------|
Ab|-----3---2-------------3--2----|
Eb|-0-----------0--2--3---------5-|


Pre-Verse
Gb|------------------|
Db|------------------|
Ab|-/10*-------------|
Eb|--------3*---1--5-|


Interlude
Gb|-----------------------------------------|
Db|-----------------------------------------|
Ab|-/10*------------------------------------|
Eb|--------3*---1*---5*---3*---x-x-3--x-x-3-|

Gb|-----------------------------|
Db|-----------------------------|
Ab|-----------------------------|
Eb|-1*---5*---3*---x-x-3--x-x-3-|
during guitar solo:
Gb|-------------------------------------|
Db|-------------------------------------|
Ab|-------------------------------------|
Eb|-5*-------------/10*---3*---1*---5*--|

Gb|-----------------------|
Db|-----------------------|
Ab|-----------------------|
Eb|-/8*---10*---1--3--5*--|

Gb|---------------|------------------------|
Db|---------------|------------------------|
Ab|---------------|------------------------|
Eb|--1*---3*---5*-|--3*---5*---1-1-1-1-1-3-|


End                                        x4
Gb|-------| |-----------------------------|  |----|
Db|-------| |-----------------------------|  |----|
Ab|-/10---| |-----------------------------|  |----|
Eb|-----3-| |-1*---5*---3*---x-x-3--x-x-3-|  |-5*-|



structure:
Intro
Chorus
Pre-Verse
Verse
Chorus
Interlude
Chorus
End



* = let the note ring
 = slide down
/ = slide up
Suggest correction
Creating personal tab
Creating personal tab
You can edit any tab online and save it as your Personal.

You can edit, replace or remove any tab part or add personal notes – all changes will be seen only by you.

Personal tabs can be accessed anytime from any device, even offline.
Learn more »
Give kudos to tab author, rate the tab!
1 2 3 4 5
comments
print report bad tab
guest
You may want to rate the tab now too:
select rating
Wanna post a correction for this tab? Suggest correction