Oops, an error
Loading. Please wait.

Shipwrecked Flat On Your Back Tab

37 views 3 this week
no commentswrite comment
1 2 3 4 5
3 more votes to show rating
add to favorites
launch autoscroll
font size
0
reset
how to read this tab
guitar tuner
Autoscroll
slow
fast
+/-
esc
set tempo
stop
Help us to improve Ultimate-Guitar.com Take our survey!
×
Author
Capo
4th fret
About this tab version
Chord notes sound more accurate to what is on the studio recording. Was this info helpful? Yes No
It's difficult to make out the acoustic guitar due to the way the track is (beautifully) mixed 
but the very opening chord and very closing chords of the songs are good reference points.

NOTE: The chord shapes below are relative to the Capo on the 4th fret
NOTE: Count 6 beats per bar below

[Intro Chord]
*CAPO 4th FRET*
e|-------------------------|-------------------------|
B|-------------------------|-------------0-----------|
G|-------------------------|-------------0-----------|
D|-------------------------|-------------2-----------|
A|-------------------------|-------------3-----------|
E|-------------------------|-------------------------|

[Verse - part 1] 
e|-------------------------|-------------------------|-------------------------|-------------------------|
B|-0-----------------------|-0-----------0-----------|-0-----------------------|-0-----------0-----------|
G|-0-----------------------|-0-----------0-----------|-0----------0------------|-0-----------0-----------|
D|-0-----------------------|-0-----------2-----------|-0----------0------------|-0-----------2-----------|
A|-2-----------------------|-2-----------3-----------|-2----------2------------|-2-----------3-----------|
E|-3-----------------------|-3-----------------------|-3----------0------------|-3-----------------------|

e|-------------------------|-------------------------|-------------------------|-------------------------|
B|-0-----------------------|-0-----------------------|-3-----------------------|-3-----------0-----------|
G|-0----------0------------|-0-----------------------|-2-----------------------|-2-----------0-----------|
D|-0----------0------------|-0-----------------------|-0-----------------------|-0-----------2-----------|
A|-2----------2------------|-2-----------------------|-0-----------------------|-0-----------3-----------|
E|-3----------0------------|-3-----------------------|-------------------------|-------------------------|

(the 1st bar 2nd chord above with the open E string is optional, just mirroring what the bass guitar plays)

[Verse - part 2] 
e|-------------------------|-------------------------|-------------------------|-------------------------|
B|-0-----------------------|-0-----------0-----------|-0-----------------------|-0-----------0-----------|
G|-0-----------------------|-0-----------0-----------|-0----------0------------|-0-----------0-----------|
D|-0-----------------------|-0-----------2-----------|-0----------0------------|-0-----------2-----------|
A|-2-----------------------|-2-----------3-----------|-2----------2------------|-2-----------3-----------|
E|-3-----------------------|-3-----------------------|-3----------0------------|-3-----------------------|

e|-------------------------|-------------------------|-------------------------|-------------------------|
B|-0-----------------------|-0-----------------------|-3-----------------------|-3-----------3-----------|
G|-0----------0------------|-0-----------------------|-2-----------------------|-2-----------0-----------|
D|-0----------0------------|-0-----------------------|-0-----------------------|-0-----------x-----------|
A|-2----------2------------|-2-----------------------|-0-----------------------|-0-----------2-----------|
E|-3----------0------------|-3-----------------------|-------------------------|-------------0-----------|

[Chorus]
  "cold night                                     We  lay        down                            Under "  
e|-------------------------|-------------------------|-------------------------|-------------------------|
B|-0-----------------------|-0-----------------------|-3-----------------------|-3-----------3-----------|
G|-0-----------------------|-0-----------0-----------|-2-----------------------|-2-----------0-----------|
D|-2-----------------------|-2-----------2-----------|-0-----------------------|-0-----------x-----------|
A|-3-----------------------|-3-----------3-----------|-0-----------------------|-0-----------2-----------|
E|-3-----------------------|-3-----------0-----------|-------------------------|-------------0-----------|

  "Star    light"
e|-------------------------|-------------------------|-------------------------|-------------------------|
B|-0-----------------------|-0-----------------------|-3-----------------------|-3-----------0-----------|
G|-0-----------------------|-0-----------0-----------|-2-----------------------|-2-----------0-----------|
D|-2-----------------------|-2-----------2-----------|-0-----------------------|-0-----------2-----------|
A|-3-----------------------|-3-----------3-----------|-0-----------------------|-0-----------3-----------|
E|-3-----------------------|-3-----------0-----------|-------------------------|-------------------------|

[Verse - part 2] 
e|-------------------------|-------------------------|-------------------------|-------------------------|
B|-0-----------------------|-0-----------0-----------|-0-----------------------|-0-----------0-----------|
G|-0-----------------------|-0-----------0-----------|-0----------0------------|-0-----------0-----------|
D|-0-----------------------|-0-----------2-----------|-0----------0------------|-0-----------2-----------|
A|-2-----------------------|-2-----------3-----------|-2----------2------------|-2-----------3-----------|
E|-3-----------------------|-3-----------------------|-3----------0------------|-3-----------------------|

e|-------------------------|-------------------------|-------------------------|-------------------------|
B|-0-----------------------|-0-----------------------|-3-----------------------|-3-----------3-----------|
G|-0----------0------------|-0-----------------------|-2-----------------------|-2-----------0-----------|
D|-0----------0------------|-0-----------------------|-0-----------------------|-0-----------x-----------|
A|-2----------2------------|-2-----------------------|-0-----------------------|-0-----------2-----------|
E|-3----------0------------|-3-----------------------|-------------------------|-------------0-----------|

[Chorus] x2
e|-------------------------|-------------------------|-------------------------|-------------------------|
B|-0-----------------------|-0-----------------------|-3-----------------------|-3-----------3-----------|
G|-0-----------------------|-0-----------0-----------|-2-----------------------|-2-----------0-----------|
D|-2-----------------------|-2-----------2-----------|-0-----------------------|-0-----------x-----------|
A|-3-----------------------|-3-----------3-----------|-0-----------------------|-0-----------2-----------|
E|-3-----------------------|-3-----------0-----------|-------------------------|-------------0-----------|

e|-------------------------|-------------------------|-------------------------|-------------------------|
B|-0-----------------------|-0-----------------------|-3-----------------------|-3-----------0-----------|
G|-0-----------------------|-0-----------0-----------|-2-----------------------|-2-----------0-----------|
D|-2-----------------------|-2-----------2-----------|-0-----------------------|-0-----------2-----------|
A|-3-----------------------|-3-----------3-----------|-0-----------------------|-0-----------3-----------|
E|-3-----------------------|-3-----------0-----------|-------------------------|-------------------------|

[Verse - part 2] 
e|-------------------------|-------------------------|-------------------------|-------------------------|
B|-0-----------------------|-0-----------0-----------|-0-----------------------|-0-----------0-----------|
G|-0-----------------------|-0-----------0-----------|-0----------0------------|-0-----------0-----------|
D|-0-----------------------|-0-----------2-----------|-0----------0------------|-0-----------2-----------|
A|-2-----------------------|-2-----------3-----------|-2----------2------------|-2-----------3-----------|
E|-3-----------------------|-3-----------------------|-3----------0------------|-3-----------------------|

e|-------------------------|-------------------------|-------------------------|-------------------------|
B|-0-----------------------|-0-----------------------|-3-----------------------|-3-----------3-----------|
G|-0----------0------------|-0-----------------------|-2-----------------------|-2-----------0-----------|
D|-0----------0------------|-0-----------------------|-0-----------------------|-0-----------x-----------|
A|-2----------2------------|-2-----------------------|-0-----------------------|-0-----------2-----------|
E|-3----------0------------|-3-----------------------|-------------------------|-------------0-----------|

[Chorus] x2
e|-------------------------|-------------------------|-------------------------|-------------------------|
B|-0-----------------------|-0-----------------------|-3-----------------------|-3-----------3-----------|
G|-0-----------------------|-0-----------0-----------|-2-----------------------|-2-----------0-----------|
D|-2-----------------------|-2-----------2-----------|-0-----------------------|-0-----------x-----------|
A|-3-----------------------|-3-----------3-----------|-0-----------------------|-0-----------2-----------|
E|-3-----------------------|-3-----------0-----------|-------------------------|-------------0-----------|

e|-------------------------|-------------------------|-------------------------|-------------------------|
B|-0-----------------------|-0-----------------------|-3-----------------------|-3-----------0-----------|
G|-0-----------------------|-0-----------0-----------|-2-----------------------|-2-----------0-----------|
D|-2-----------------------|-2-----------2-----------|-0-----------------------|-0-----------2-----------|
A|-3-----------------------|-3-----------3-----------|-0-----------------------|-0-----------3-----------|
E|-3-----------------------|-3-----------0-----------|-------------------------|-------------------------|

[Final bars]
e|-------------------------|-------------------------|-------------------------|
B|-0-----------------------|-0-----------0-----------|-0-----------------------|
G|-0-----------------------|-0-----------0-----------|-0----------0------------|
D|-0-----------------------|-0-----------2-----------|-0----------0------------|
A|-2-----------------------|-2-----------3-----------|-2----------2------------|
E|-3-----------------------|-3-----------------------|-3----------0------------|

(Guitar 2)

Last bar from Verse that precedes each Chorus:
e|-------------------------|
B|-----------------12------|
G|---------------------11--|
D|-------------------------|
A|-------------------------|
E|-------------------------|

[Chorus 1+2+3] 
bars repeated:
e|-------------------------|-------------------------|-------------------------|-------------------------|
B|-14----------------------|-----------------12------|-11----------------------|-----------------12------|
G|-------------------------|---------------------11--|-------------------------|---------------------11--|
D|-------------------------|-------------------------|-------------------------|-------------------------| 
A|-------------------------|-------------------------|-------------------------|-------------------------|
E|-------------------------|-------------------------|-------------------------|-------------------------|

(Guitar 3)

[Chorus 2 + 3]
  Enters in 9th bar and repeat until end of Chorus
e|-11----------------------|-11----------------------|-11----------------------|-11----------------------|
B|-----12------14------12--|---------12--14----------|-----12------14------12--|-----12------14----------|
G|---------11--------------|-----11--------------11--|---------11--------------|---------11----------11--|
D|-------------------------|-------------------------|-------------------------|-------------------------|
A|-------------------------|-------------------------|-------------------------|-------------------------|
E|-------------------------|-------------------------|-------------------------|-------------------------|



************************************

| x  Dead note 

************************************
Suggest correction
Give kudos to tab author, rate the tab!
1 2 3 4 5
comments
print report bad tab
guest
You may want to rate the tab now too:
select rating
Wanna post a correction for this tab? Suggest correction