Oops, an error
Loading. Please wait.

The House Where We Grew Up Tab

1,120 views 6 this week
no commentswrite comment
1 2 3 4 5
x 3
add to favorites
launch autoscroll
font size
0
reset
how to read this tab
guitar tuner
Autoscroll
slow
fast
+/-
esc
set tempo
stop
Help us to improve Ultimate-Guitar.com Take our survey!
×
Author
Difficulty
intermediate
Intro:

E|-----------------------|
B|-----------------------|
G|-----------------------|
D|--3--4--3--4--6--4-----|
A|--4--4--4--4--4--4--6--|
E|--2--2--2--2--2--2--2--|  (x2)

Main Riff

E|------------------------------------4--|
B|-----------------------------------4-4-|
G|--5--6--6--5--6--6--5--6--8-------6----|
D|--6--6--6--6--6--6--6--6--6--8---------|
A|--4--4--4--4--4--4--4--4--4--4---------|
E|---------------------------------------| 
(Repeats throughout most of the song)

Second Guitar Riff

E|--------------------------|
B|--------------------------|
G|--------------------------|
D|--10--11--11--10--11--11--|
A|--11--11--11--11--11--11--|
E|--9---9---9---9---9---9---|
Suggest correction
Give kudos to tab author, rate the tab!
1 2 3 4 5
comments
print report bad tab
guest
You may want to rate the tab now too:
select rating
Wanna post a correction for this tab? Suggest correction