Oops, an error
Loading. Please wait.

Hamsterdance Song Tab

10,334 views 1 this week
no commentswrite comment
1 2 3 4 5
excellent!
x 4
add to favorites
launch autoscroll
font size
0
reset
how to read this tab
guitar tuner
Autoscroll
slow
fast
+/-
esc
set tempo
stop
Help us to improve Ultimate-Guitar.com Take our survey!
×
Author
Difficulty
novice
official website- http://www.hamsterdance.com/

Main Riff:

e|---------------------------------------|
B|---------------------------------12----|
G|-13-11-13-9-9-11-9----13-9-11-13-------|
D|-------------------9-------------------|
A|---------------------------------------|
E|---------------------------------------|



e|--12-9------9--------------------------------------|
B|--------12----12-9-----9\5--7-5-5--9-7-5-6-5-5-----|
G|-------------------11------------------------------|
D|---------------------------------------------------|
A|---------------------------------------------------|
E|---------------------------------------------------|

Solo:
e|-----------------------------------|
B|-----------------------------------|
G|-13-9------9-11-9-11-13--11-11-----|
D|------9--9-------------------------|
A|-----------------------------------|
E|-----------------------------------|


e|----------------------------------------------------------|
B|-----------------12--10-10--------------------------------|
G|-9-11-13--9--13-------------13-11--13-13-13--11-11-9-9----|
D|----------------------------------------------------------|
A|----------------------------------------------------------|
E|----------------------------------------------------------|


e|-------------------------------------------|
B|-------------------------------------------|
G|-9-11-13-13-9-9--------9-11-9-11-13-11-----|
D|----------------9-9--9---------------------|
A--------------------------------------------|
E|-------------------------------------------|


e|----------------------------------------------------------|
B|-------------------12-10-10-------------------------------|
G|--9-11-13--9-9--13------------13-11--13-13-13--11-11-9-9--|
D|----------------------------------------------------------|
A|----------------------------------------------------------|
E|----------------------------------------------------------|

rhythm guitar:

e|-------------------------------------------------------|
B|-------------------------------------------------------|
G|-------------------------------------------------------|
D|--------------9-9-9--11-11-11--7-7-7--9-9-9------------|
A|-7-7-7-7-7-7---------------------------------7-7-7-----|
E|-------------------------------------------------------|




Suggest correction
comments
print report bad tab
guest
You may want to rate the tab now too:
select rating
Wanna post a correction for this tab? Suggest correction