Oops, an error
Loading. Please wait.

Sweets Parade Bass Tab

271 views 3 this week
no commentswrite comment
1 2 3 4 5
please rate
add to favorites
launch autoscroll
font size
0
reset
guitar tuner
Tab Pro tools
  • play this tab
  • loop segment
  • change instrument
  • show fretboard
  • metronome
Autoscroll
slow
fast
+/-
esc
set tempo
stop
Contributor
Difficulty
intermediate
Song: Sweets Parade
Artist: Hanazawa Kana (http://www.hanazawakana-music.net/)
Tabbed By : ChaelMi
e-mail: ikel_22@yahoo.com


(00:09) Intro 
|-----------------------------|---------------------------|
|-----------------------------|---------------------------|
|-33----22-2-2-----55-----2-2-|-33----22-2-2-----55-------|
|----22-----3---55----33-3-3--|----22-----3---55----33-33-|


(00:18) VerseI 
|-------------------------------------|---------------------------------------|
|-7-5--7-5--7-5-----------------------|-7-5--7-5--7-5------------12-10--------|
|--5----5----5----8-9-10---8-10--8-10-|--5----5----5----8-9-10---------12-----|
|-------------------------------------|------------------------------------10-|

(00:37)
|----------------------------------|---------------------------------|
|----------------------------------|---------------------------------|
|--5----5----5-------------5-3-----|--5----5----5--------------------|
|-5-3--5-3--5-3---1-2-33-------5-3-|-5-3--5-3--5-3---1-2-33---4-55-6-|


(00:56) Pre-Chorus
|---------------------------------------------------------|
|----------------------------12-11------------------------|
|------15-14---15-12-10-14---------12-14---/12-1514-13-12-|
|-8/15----------------------------------------------------|


(01:05) Chorus 
|-----------------------------|   |---------------------------|
|-----------------------------|   |---------------------------|
|-33----22-2-2-----55-----2-2-|   |-33----22-2-2-----55-------|
|----22-----3---55----33-3-3--|3x |----22-----3---55----33-33-|


(01:24) VerseII 
|----------------------------------|---------------------------------|
|----------------------------------|---------------------------------|
|--5----5----5-------------5-3-----|--5----5----5--------------------|
|-5-3--5-3--5-3---1-2-33-------5-3-|-5-3--5-3--5-3---1-2-33---4-55-6-|


(01:42) *Repeat Pre-Chorus 
(01:52) *Repeat Chorus 


(02:10) Instrumental Solo
|-------------------------------|-----------------------------|
|-------------------------------|-----------------------------|
|-3--3h4p3-22-2-2----55-----2-2-|-33----22-2-2-----55-----2-2-|
|---2----------3--55----33-3-3--|----22-----3---55----33-3-3--|

|-42---------------------------|-------------------------------------------|
|---42-------------------------|-------7-------12---------12---------------|
|-----432--------5---5-----2-2-|-5-7-9-----1012--10---1214--12---1010-1010-|
|----------3-5-7----5--33-3-3--|-------------------------------------------|


(03:06) *Repeat Pre-Chorus


(03:16) ChorusIII                 (03:30)
|-----------------------------|   |------------------------------|
|-----------------------------|   |------------------------------|
|-33----22-2-2-----55-----2-2-|   |-3(8x)-222-2-2-----55-----2-2-|
|----22-----3---55----33-3-3--|x3 |------------3---55----33-3-3--|

(03:34)                              (03:48) Outro
|--------------------------------|   |-----------------------------|
|--------------------------------|   |-----------------------------|
|-3--3h4-32-2-2-2-----55-----2-2-|   |-3---32-22-2-2----55---------|
|---2----------3---55----33-3-3--|x3 |---23-------3--55----3-3333--|

| /  slide up
| h  hammer-on


Please rate and comment!
Suggestions are welcome.
comments
We did not receive enough feedback on this tab! Please rate:
print report bad tab
1 2 3 4 5
I want to post or [tab]
guest
You may want to rate the tab now too:
select rating
Please do not post tabs as comments. Select "correction" instead!