Oops, an error
Loading. Please wait.

Introduced Species tab

version 3
version 3

Whole song

Interactive

12,829 views 9 this week
4 commentsread comments
1 2 3 4 5
x 14
add to favorites
×
Save as Personal and add changes to this tab that will be seen only by you. Learn more ›
×
You can save this tab as Personal to edit and correct it or add notes. All changes will be seen only by you. Learn more »
launch autoscroll
font size
0
reset
how to read this tab
guitar tuner
backing track
0:00
0:00
edit
Autoscroll
slow
fast
+/-
esc
set tempo
stop
Tuning: Drop C (CGCFAD) Low to High
Tabbed by: warlordscar0

Intro Lead
D|------------------------------------|
A|----------13/15---------------------|
F|---10--10--------14~--12-12h14-12---|
C|-12--12-----------------------------| (x4)
G|------------------------------------|
C|------------------------------------|

Intro Rhythm
D|---------------------------------------------------------|
A|---------------------------------------------------------|
F|---------------------------------------------------------|
C|---------------------------------------------------------|
G|0-000-0-0-0-0--10-10-10-10--8-888-8-8-8-8-888-10-10-10-10|
C|0-000-0-0-0-0--10-10-10-10--8-888-8-8-8-8-888-10-10-10-10|  (x2)
  * *** * * * *  *  *  *  *   * *** * * * *  *  *  *  *

"Wake up, walk on the wires, defeat and define"
D|----------------|   |----------------|
A|----------------|   |----------------|
F|----------------|   |----------------|
C|----------------| - |---------8~-10~-|
G|----------------|   |---------8~-10~-|
C|0"-3"-2"-8"\10"-|   |0"-3"-2"-8~-10~-|

Chorus
D|--------------------------------------------|
A|--------------------------------------------|
F|--------------------------------------------|
C|8-8-8-8-12-12-12-12-10-10-10-10-10-10-12-12-|
G|8-8-8-8-12-12-12-12-10-10-10-10-10-10-12-12-|
C|8-8-8-8-12-12-12-12-10-10-10-10-10-10-12-12-|

Chorus(Lead)
D|10-8-------------10-8----------------------------------|
A|-----10-8~-6----------10-8~-10-------------10----------|
F|-------------7----------------9~-7-9-10-12----12-10----|
C|----------------------------------------------------12-|
G|-------------------------------------------------------|
C|-------------------------------------------------------|

D|10-8-------------10-8----13p12------------------------------|
A|-----10-8~-6----------10-------13-10~-----------10----------|
F|-------------7------------------------7-9-10-12----12-10----|
C|---------------------------------------------------------12-|
G|------------------------------------------------------------|
C|------------------------------------------------------------|
Suggest correction
Creating personal tab
Creating personal tab
You can edit any tab online and save it as your Personal.

You can edit, replace or remove any tab part or add personal notes – all changes will be seen only by you.

Personal tabs can be accessed anytime from any device, even offline.
Learn more »
comments
print report bad tab
4 comments total. Showing first comments.
0 reply
0schuyler 10 Aug 11, 2013 07:04 PM

This is 95% accurate! 5 stars!

0 reply
umbrella666 51 Aug 26, 2014 05:59 AM

You're fairly accurate, man! The song is definitely in Drop Bb though just a heads up! You can hear it with the second chord as it is much lower than the first.

+1 reply
Mike65910 10 Apr 07, 2015 07:15 PM

maybe try this instead for the chorus lead. you barely have to move your hand to play it

Chorus(Lead)
D|10-8-------------10-8----------------------------------|
A|-----10-8~-6----------10-8~-10-----------8-10-8--------|
F|-------------7----------------9~-7-9-10----------10-7--|
C|-------------------------------------------------------|
G|-------------------------------------------------------|
C|-------------------------------------------------------|

guest
You may want to rate the tab now too:
select rating
Wanna post a correction for this tab? Suggest correction