Oops, an error
Loading. Please wait.

Perspectives Tab

73 views 9 this week
1 commentread comment
1 2 3 4 5
2 more votes to show rating
add to favorites
launch autoscroll
font size
0
reset
how to read this tab
guitar tuner
Autoscroll
slow
fast
+/-
esc
set tempo
stop
Help us to improve Ultimate-Guitar.com Take our survey!
×
Author
Difficulty
Tuning
intermediate
C G C F A D
About this tab version
This tab is how I play the song by what I was able to figure out by ear. It might not sound 100% accurate, but this is what I did for my cover on YouTube. (Minus some additions). Was this info helpful? Yes No
In order to get the rhythm of each note/chord listen to the 
audio of the original: https://www.youtube.com/watch?v=Ffl3yP9fXD0
or feel free to check out my cover on YouTube: https://youtu.be/V6-bkeXbxbg

[Intro]

Rhythm Part:                                                  

D |-------------------------------|       
A |-------------------------------|        
F |-------------------------------|        
C |-2--------12---10--------------| x2    
G |-2-x12----12---10--------------|        
C |-2--------12---10--------------|        
   PM -------------

Lead Part:                      

D |----------------------------------------------------------------------------|
A |---------------------------------------------------------7------------------|
F |--9-------9------9--------8-------9-------9-----9---------------------------|
C |----------------------------------------------------------------------------|x2
G |----7-7-7---7-7-7---7-7-7---7-7-7---7-7-7---7-7-7--7-7-7---7-7-7-7-7-7-7----|
C |----------------------------------------------------------------------------|
  


[Verse]

No guitar - 
Vocals:
"Be honest with yourself..."                           
D |---------------------------------------------------------------------------|
A |---------------------------------------------------------------------------|
F |--7-9---12-11--7-9---7-9--12-11-11-9-11-9-11-12-9--------------------------|
C |---------------------------------------------------------------------------|
G |---------------------------------------------------------------------------|
C |---------------------------------------------------------------------------|

"You're fogging up the glass"
D |---------------------------------------------------------------------------|
A |-------12------------------------------------------------------------------|
F |--7-9-----11--9--12--9-12-12-11-12-11-9---7-7--11-11-11-9-12---------------|
C |---------------------------------------------------------------------------|
G |---------------------------------------------------------------------------|
C |---------------------------------------------------------------------------|


[Chorus]
"All my life..."
D |---------------------------------------------------------------------------|
A |---------------------------------------------------------------------------|
F |-----------------------------------7---------------------------------------|
C |--2------10----2----0--------------7---------------------------------------|x4
G |--2------10----2----0---[optional]-5---------------------------------------| 
C |--2------10----2----0------------------------------------------------------|

[Repeat Intro]
Rhythm Part:                                                  

D |-------------------------------|       
A |-------------------------------|        
F |-------------------------------|        
C |-2--------12---10--------------| x2    
G |-2-x12----12---10--------------|        
C |-2--------12---10--------------|        
   PM -------------

Lead Part:                      

D |----------------------------------------------------------------------------|
A |---------------------------------------------------------7------------------|
F |--9-------9------9--------8-------9-------9-----9---------------------------|
C |----------------------------------------------------------------------------|x2
G |----7-7-7---7-7-7---7-7-7---7-7-7---7-7-7---7-7-7--7-7-7---7-7-7-7-7-7-7----|
C |----------------------------------------------------------------------------|
  

{Verse 2]

Clean 
"The lights left on all night..."
D |-----------------------------------------------------------------------------------------------|
A |-----------------------------------------------------------------------------------------------|
F |--9-9-9-9-9-9-9-9-9-9-9-9-9-9-9-9-9-9-7-7-7-7-11-11-11-11-4-4-4-4------------------------------|
C |-----------------------------------------------------------------------------------------------|
G |-----------------------------------------------------------------------------------------------|
C |-----------------------------------------------------------------------------------------------|

D |----------------------------------------------------------------------------------------------|       
A |----------------------------------------------------------------------------------------------|        
F |--9-9-9-9-9-9-9-9-9-9-9-9-9-9-9-9-9-9-7-7-7-7-9-9-9-9-11-11-11-11-----------------------------|        
C |----------------------------------------------------------------------------------------------|    
G |----------------------------------------------------------------------------------------------|        
C |----------------------------------------------------------------------------------------------|

Distortion 
"And I'm beating down the door..."
D |--------------------------------------------------------------|
A |----------8-8-8-8-----------8-8-8-8-----------8-8-8-8-7-7-7-7-|
F |--------------------------------------------------------------|
C |-2-2-2-2--5-5-5-5--2-2-2-2--5-5-5-5--2-2-2-2--5-5-5-5-4-4-4-4-|
G |-2-2-2-2-----------2-2-2-2-----------2-2-2-2------------------|
C |-2-2-2-2-----------2-2-2-2-----------2-2-2-2------------------|

D |----------------------------------------------------------| 
A |-----------------8-8-8-8---------8-8-8-8---------8-8-8-8--|
F |----------------------------------------------------------| 
C |-0-0-0-0-2-2-2-2-5-5-5-5-2-2-2-2-5-5-5-5-2-2-2-2-5-5-5-5--| 
G |-0-0-0-0-2-2-2-2---------2-2-2-2---------2-2-2-2----------| 
C |-0-0-0-0-2-2-2-2---------2-2-2-2---------2-2-2-2----------| 

[Repeat Chorus] 
"All my life..."
D |---------------------------------------------------------------------------|
A |---------------------------------------------------------------------------|
F |-----------------------------------7---------------------------------------|
C |--2------10----2----0--------------7---------------------------------------|x4
G |--2------10----2----0---[optional]-5---------------------------------------| 
C |--2------10----2----0------------------------------------------------------|
 
[Bridge] 

Clean
D |---------------------------------------------|
A |-------15--------------15--------------------|
F |--9-12----12------9-12----14-16-12-----------|
C |---------------------------------------------|x2
G |---------------------------------------------|
C |---------------------------------------------|

Distortion 
"I'll make amends I'll make believe..."
D |----------------------------------------------------------|
A |----------------------------------------------------------|
F |----------------------------------------------------------|
C |--10-10-10-10-10-10-10-2-2-2-2-2-2-2-2-2-2-2-2-2-2-2-2----|x2
G |--10-10-10-10-10-10-10-2-2-2-2-2-2-2-2-2-2-2-2-2-2-2-2----|
C |--10-10-10-10-10-10-10-2-2-2-2-2-2-2-2-2-2-2-2-2-2-2-2----|
    PM--------------------------------------------------

D |------------------------------------------------------|
A |---------------------------------8-8-8-8-7-7-7-7------|
G |---------9-9-9-9-9-9-9-9------------------------------|
C |-2-2-2-2-----------------2-2-2-2-5-5-5-5-4-4-4-4------|
G |-2-2-2-2-7-7-7-7-7-7-7-7-2-2-2-2----------------------|
C |-2-2-2-2-----------------2-2-2-2----------------------|

[Repeat Chorus] 
"All my life..."
D |---------------------------------------------------------------------------|
A |---------------------------------------------------------------------------|
F |-----------------------------------7---------------------------------------|
C |--2------10----2----0--------------7---------------------------------------|x4
G |--2------10----2----0---[optional]-5---------------------------------------| 
C |--2------10----2----0------------------------------------------------------|
 

[Outro]

Rhythm
D |-----------------------------------------------------------------------------------------|
A |-----------------------------------------------------------------------------------------|
G |----------------------------------------------------------------------5-5-5-5-5-5-5-5----|
C |-10-10-10-10-10-10-10-10--2-2-2-2-2-2-2-2--0-0-0-0-0-0-0-0------------5-5-5-5-5-5-5-5----|x2
G |-10-10-10-10-10-10-10-10--2-2-2-2-2-2-2-2--0-0-0-0-0-0-0-0-[optional]-3-3-3-3-3-3-3-3----|
C |-10-10-10-10-10-10-10-10--2-2-2-2-2-2-2-2--0-0-0-0-0-0-0-0-------------------------------|

Lead
D |-------------------------------------------------|
A |-------------------------------------------------|
G |----------7---7-9-9/12-11-9-11-9-7---------------|
C |------7-9---9----------------------9-7-----------|x4
G |-7-10--------------------------------------------|
C |-------------------------------------------------|
 
[Repeat Intro] 
Rhythm Part:                                                  

D |-------------------------------|       
A |-------------------------------|        
F |-------------------------------|        
C |-2--------12---10--------------| x2    
G |-2-x12----12---10--------------|        
C |-2--------12---10--------------|        
   PM -------------

Lead Part:                      

D |----------------------------------------------------------------------------|
A |---------------------------------------------------------7------------------|
F |--9-------9------9--------8-------9-------9-----9---------------------------|
C |----------------------------------------------------------------------------|x2
G |----7-7-7---7-7-7---7-7-7---7-7-7---7-7-7---7-7-7--7-7-7---7-7-7-7-7-7-7----|
C |----------------------------------------------------------------------------|
   
End on 
D |-----------|
A |-----------|
G |-----------|
C |-x-10-x-10-| 
G |-x-10-x-10-| 
C |-x-10-x-10-|

************************************

| x   Dead note
| g   Grace note
| (n) Ghost note
| h   Hammer-on
| p   Pull-oGG
| r   Release
| >   Accented note
| t   Tapping
| b   Bend
| br  Bend release
| pb  Pre-bend
| pbr Pre-bend release
| /   Slide up
| \   Slide down
| ~   Vibrato
| s   Slap
| P   Pop
| PM  Palm mute
| TR  Trill
| N   Tremolo

************************************
Suggest correction
Give kudos to tab author, rate the tab!
1 2 3 4 5
comments
print report bad tab
1 comment total.
0 reply
vppark2 1,600 Nov 15, 2016 05:36 PM

You should tab out more songs from the album :P

guest
You may want to rate the tab now too:
select rating
Wanna post a correction for this tab? Suggest correction