Oops, an error
Loading. Please wait.

The Projects P Jays Bass

19 views 1 this week
no commentswrite comment
1 2 3 4 5
3 more votes to show rating
add to favorites
launch autoscroll
font size
0
reset
guitar tuner
×
Best way to learn
"The Projects P Jays"
Autoscroll
slow
fast
+/-
esc
set tempo
stop
Author
Difficulty
"The Projects (P Jays)" by Handsome Boy Modeling School
From the 1999 album So... How's Your Girl?

Bass line is consistent throughout and repeats indefinitely.

[Verse]
G|------3--------|--------------|
D|---3h5-5-3-----|---------3----|
A|3-3-------6-3-3|-6-3-3-6--6-3-|
E|-------------6-|----6--------6|

[Chorus]
G|------3--------|--------------|
D|---3h5-5-3-----|---------3----|
A|3-3-------6-3-3|-6-3-3-6--6-3-|
E|-------------6-|----6--------6|

That's it!  Happy playing

h hammer on
Suggest correction
Give kudos to tab author, rate the tab!
1 2 3 4 5
comments
print report bad tab
guest
You may want to rate the tab now too:
select rating
Wanna post a correction for this tab? Suggest correction