Oops, an error
Loading. Please wait.

Apache Tab

version 1
version 1

Whole song

Interactive

15,334 views 30 this week
no commentswrite comment
1 2 3 4 5
x 6
add to favorites
launch autoscroll
font size
0
reset
how to read this tab
guitar tuner
Autoscroll
slow
fast
+/-
esc
set tempo
stop
Author
Difficulty
novice
Tuning: standard

e|---------------------------5---3---(0)---|
B|-------1--(3b4)---------1----------------|
G|---2-----------------2-------------------|
D|-----------------------------------------| (x2)
A|-----------------------------------------|
E|-----------------------------------------|

e|-----------------------------------------|
B|-----------------------------------------|
G|------(2)------2-------------------------|
D|----2------2------(4)---2---0---(2sv)----| (x2)
A|-----------------------------------------|
E|-----------------------------------------|

e|-----------------------------------------|
B|------(3)------3-------------------------|
G|---2-------2------(4)---2---0---(2sv)----|
D|-----------------------------------------| 
A|-----------------------------------------|
E|-----------------------------------------|

e|-----------------------------------------|
B|-----------------------------------------|
G|------(2)------2-------------------------|
D|----2------2------(4)---2---0---(2sv)----| 
A|-----------------------------------------|
E|-----------------------------------------|

e|-------------------------------------------------------------|
B|-------------------------------------------------------------|
G|-------------------------------------------------------------|
D|-----3-3-3-3------3-3-3-3------3-3-3-3------3-3-3-3--(2)-----| 
A|-(3)----------(3)----------(3)----------(3)-------------(0)--|
E|-------------------------------------------------------------|

e|-------------------------------------------------------------|
B|-------------------------------------------------------------|
G|-------------------------------------------------------------|
D|-----3-3-3-3------3-3-3-3------3-3-3-3------3-3-3-3--(2)-----| 
A|-(3)----------(3)----------(3)----------(3)------------------|
E|-------------------------------------------------------------|


************************************

| (n)  Ghost note
| b    Bend

************************************
Suggest correction
comments
print report bad tab
guest
You may want to rate the tab now too:
select rating
Wanna post a correction for this tab? Suggest correction