Oops, an error
Loading. Please wait.

Geronimo Tab

4,203 views 9 this week
no commentswrite comment
1 2 3 4 5
please rate
add to favorites
launch autoscroll
font size
0
reset
how to read this tab
guitar tuner
Tab Pro tools
  • play this tab
  • loop segment
  • change instrument
  • show fretboard
  • metronome
×
Best way to learn
"Geronimo"
Autoscroll
slow
fast
+/-
esc
set tempo
stop
Contributor
Hank Marvin
Geronimo



|-8-----12-10----7---8--|
|-10----13-12----8---10-|
|-----------------------|
|-----------------------|
|-----------------------|
|-----------------------|

  .....................................................
|---------------------------------------------------------------|
|-----------------------------------------------------------0---|
|-------------------------------------------------------1-------|
|-----2-1-2-3-2---0-----2-1-2-3-2-------2-1-2-3-2---3-2---------|
|-0-----------------3-2-----------3-2-3-------------------------|
|---------------------------------------------------------------|


|--------------------------------------------------------|
|-1~~-1-0------------------------------------------------|
|-2~~-----2-0-------2-0----------------------------------|
|-3~~---------2---------3-2-----3-2-0-2------------------|
|-3~~-----------3-----------3-0------------3/5-5-------0-|
|--------------------------------------------------3h5---|

  .....................................................
|---------------------------------------------------------------|
|-----------------------------------------------------------0---|
|-------------------------------------------------------1-------|
|-----2-1-2-3-2---0-----2-1-2-3-2-------2-1-2-3-2---3-2---------|
|-0-----------------3-2-----------3-2-3-------------------------|
|---------------------------------------------------------------|


|--------------------------------------------------------|
|-1~~-1-0------------------------------------------------|
|-2~~-----2-0-------2-0----------------------------------|
|-3~~---------2---------3-2-----3-2-0-2------------------|
|-3~~-----------3-----------3-0------------3/5-5-------0-|
|--------------------------------------------------3h5---|


|--------------------------------------------------------------------------|
|-----------1----3-1-3-1---------------------------------1----1-3-1-3-1----|
|---------2--------------2-0--0-2-0-2-0----------------2----------------2-0|
|-333-333-------------------------------0---2--333-333---------------------|
|--------------------------------------------------------------------------|
|--------------------------------------------------------------------------|


|----------------------------------------|
|---------------0-3-0------------1-----1-|
|-------000-000----------------2---2-0-2-|
|---2------------------333-333---------2-|
|-3--------------------------------------|
|----------------------------------------|

  .......................................................
|---------------------------------------------------------------|
|-----------------------------------------------------------0---|
|-------------------------------------------------------1-------|
|-----2-1-2-3-2---0-----2-1-2-3-2-------2-1-2-3-2---3-2---------|
|-0-----------------3-2-----------3-2-3-------------------------|
|---------------------------------------------------------------|


|-------------------------------------------------------------|
|-1~~-1-0-----------------------------------------------------|
|-2~~-----2-0-------2-0---------------------------------------|
|-3~~---------2---------3-2-----3-2-0-2-----------------------|
|-3~~-----------3-----------3-0------------3/5-5-------0-----0|
|--------------------------------------------------3h5---3h5--|


|-8-----12-10----7---8----8~~~--9~~~--8~~~--9~~~--|
|-10----13-12----8---10---10~~--10~~--10~~--10~~--|
|-------------------------9~~~--9~~~--9~~~--9~~~--|
|-------------------------10~~--11~~--10~~--11~~--|
|-------------------------------------------------|
|-------------------------------------------------|

h hammer on
~ vibrato
/ slide up
comments
We did not receive enough feedback on this tab! Please rate:
print report bad tab
1 2 3 4 5
I want to post or [tab]
guest
You may want to rate the tab now too:
select rating
Please do not post tabs as comments. Select "correction" instead!