Oops, an error
Loading. Please wait.

Ive Been Everywhere bass

43 views 1 this week
no commentswrite comment
1 2 3 4 5
3 more votes to show rating
add to favorites
×
Save as Personal and add changes to this tab that will be seen only by you. Learn more ›
×
You can save this tab as Personal to edit and correct it or add notes. All changes will be seen only by you. Learn more »
launch autoscroll
font size
0
reset
guitar tuner
edit
Autoscroll
slow
fast
+/-
esc
set tempo
stop
Tabbed Tabbed by: 6METAL6BASSIST6
E-mail: petergriffinav@gmail.com

Tuning: EADG

G|------------------------------------------------------------------------------------------------|
D|------------------------6-------------------6---------------------------6---------------3---6---|
A|4-----------------------------------------------4-----------------------------------------------|
E|------------------------------------------------------------------------------------------------|

G|------------------------------------------------------------------------------------------------|
D|------------------------6-------------------6-----------------------------------------------3---|
A|4-----------------------------------------------4-----------------------4---------------6-------|
E|------------------------------------------------------------------------------------------------|

0:17

G|------------------------------------------------------------------------------------------------|
D|4-----------------------------------------------4-----------------------4-----------------------|
A|------------------------4-------------------4---------------------------------------------------|
E|------------------------------------------------------------------------------------------------|

G|------------------------------------------------------------------------------------------------|
D|------------------------6-------------------6-------------------------------------------3---4---|
A|4-----------------------------------------------4-----------------------4-----------------------|
E|------------------------------------------------------------------------------------------------|

0:30

G|------------------------------------------------------------------------------------------------|
D|6-----------------------------------------------6---------------------------------------6---6---|
A|------------------------6-----------------------------------------------6-----------------------|
E|------------------------------------------------------------------------------------------------|

G|------------------------------------------------------------------------------------|
D|------------------------------------------------------------------------------------|
A|4-----------------------------------------------------------------------------------|
E|------------------------------------------------------------------------------------|

0:41

G|----------------------------------------------------------------|
D|--------6---------------6---------------6---------------6-------|
A|4---------------4---------------4---------------4---------------|
E|----------------------------------------------------------------|

G|----------------------------------------------------------------|
D|4---------------4-------4---------------6-----------------------|
A|--------4-----------------------4---------------4-------4-------|
E|----------------------------------------------------------------|

G|--------------------------------------------------------------------------------|
D|6---------------6---------------6-----------------------6---------------6-------|
A|--------6---------------6---------------6-------4---------------4---------------|
E|--------------------------------------------------------------------------------|

0:54

G|----------------------------------------------------------------|
D|--------6---------------6---------------6---------------6-------|
A|4---------------4---------------4---------------4---------------|
E|----------------------------------------------------------------|

G|----------------------------------------------------------------|
D|4---------------4-----------------------6-----------------------|
A|--------4---------------4-------4---------------4-------4-------|
E|----------------------------------------------------------------|

G|----------------------------------------------------------------|
D|6---------------6-----------6-----------6---------------6-------|
A|--------6---------------6-------4---------------4---------------|
E|----------------------------------------------------------------|

1:06

G|----------------------------------------------------------------|
D|--------6---------------6---------------6---------------6-------|
A|4---------------4---------------4---------------4---------------|
E|----------------------------------------------------------------|

G|----------------------------------------------------------------|
D|4---------------4-------4---------------6---------------6-------|
A|--------4-----------------------4---------------4---------------|
E|----------------------------------------------------------------|

G|------------------------------------------------|
D|6---------------6---------------6---------------|
A|--------6---------------6---------------6-------|
E|------------------------------------------------|

G|----------------------------------------------------------------|
D|--------6---------------6---------------------------------------|
A|4---------------4---------------5---------------5---------------|
E|----------------------------------------5---------------5-------|

1:21

G|----------------------------------------------------------------|
D|------------------------------------------------------------4---|
A|5---------------5---------------5---------------5-------7-------|
E|--------5---------------5---------------5-----------------------|

G|----------------------------------------------------------------|
D|5---------------5-------5---------------------------------------|
A|--------5-----------------------5---------------5---------------|
E|----------------------------------------5---------------5-------|

G|----------------------------------------------------------------|
D|7---------------7-----------------------------------------------|
A|--------7---------------7-------5---------------5-----------4---|
E|----------------------------------------5---------------5-------|

1:33

G|----------------------------------------------------------------|
D|------------------------------------------------------------4---|
A|5---------------5---------------5---------------5-------7-------|
E|--------5---------------5---------------5-----------------------|

G|----------------------------------------------------------------|
D|5---------------5-------5---------------------------------------|
A|--------5-----------------------5---------------5---------------|
E|----------------------------------------5---------------5-------|

G|----------------------------------------------------|
D|7---------------7---------------7-------------------|
A|--------7---------------7-------------------4---5---|
E|----------------------------------------7-----------|

G|----------------------------------------------------------------|
D|----------------------------------------------------------------|
A|5---------------5---------------6---------------6---------------|
E|--------5---------------5---------------6---------------6-------|

1:48

G|----------------------------------------------------------------|
D|------------------------------------------------------------5---|
A|6---------------6---------------6---------------6-------8-------|
E|--------6---------------6---------------6-----------------------|

G|----------------------------------------------------------------|
D|6---------------6-----------------------------------------------|
A|--------6---------------6-------6---------------6-------6-------|
E|----------------------------------------6-----------------------|

G|----------------------------------------------------------------|
D|----------------------------------------------------------------|
A|--------8---------------8-------6---------------6-----------5---|
E|6---------------6-----------------------6---------------8-------|

2:00

G|----------------------------------------------------------------|
D|------------------------------------------------------------5---|
A|6---------------6---------------6---------------6-------8-------|
E|--------6---------------6---------------6-----------------------|

G|----------------------------------------------------------------|
D|6---------------6-------6---------------------------------------|
A|--------6-----------------------6---------------6---------------|
E|----------------------------------------6---------------6-------|

G|------------------------------------------------|
D|------------------------------------------------|
A|--------8---------------8-------------------5---|
E|6---------------6---------------6-------8-------|

G|----------------------------------------------------------------|
D|----------------------------------------------------------------|
A|6---------------6---------------7---------------7---------------|
E|--------6---------------6---------------7---------------7-------|

2:15

G|----------------------------------------------------------------|
D|----------------------------------------------------------------|
A|7---------------7---------------7---------------7---------------|
E|--------7---------------7---------------7---------------7-------|

G|----------------------------------------------------------------|
D|7---------------7-----------7-----------------------------------|
A|--------7---------------7-------7---------------7-------7-------|
E|----------------------------------------7-----------------------|

G|----------------------------------------------------------------|
D|----------------------------------------------------------------|
A|--------9---------------9-------7---------------7-----------6---|
E|7---------------7-----------------------7---------------9-------|

2:27

G|----------------------------------------------------------------|
D|------------------------------------------------------------6---|
A|7---------------7---------------7---------------7-------9-------|
E|--------7---------------7---------------7-----------------------|

G|----------------------------------------------------------------|
D|7---------------7-------7---------------------------------------|
A|--------7-----------------------7---------------7---------------|
E|----------------------------------------7---------------7-------|

G|--------------------------------|
D|9-------------------------------|
A|--------9-------6---------------|
E|------------------------7-------|

G|------------------------------------------------|
D|------------------------------------------------|
A|------------------------------------------------|
E|7-----------------------------------------------|

G|------------------------------------------------------------------------------------|
D|------------------------------------------------------------------------------------| fades out here.
A|7---------------7-----7-----6---7-----7---------7-----7-----6---7-----7---------7---|
E|--------7---------------7---------------7-----7---------7---------------7-----------|

            
            
Suggest correction
Creating personal tab
Creating personal tab
You can edit any tab online and save it as your Personal.

You can edit, replace or remove any tab part or add personal notes – all changes will be seen only by you.

Personal tabs can be accessed anytime from any device, even offline.
Learn more »
Give kudos to tab author, rate the tab!
1 2 3 4 5
comments
print report bad tab
guest
You may want to rate the tab now too:
select rating
Wanna post a correction for this tab? Suggest correction