Oops, an error
Loading. Please wait.

Jambalaya tab

version 1
version 1

Whole song

Interactive

Video

  • Here is a very easy but great-sounding video lesso... Show more
45,159 views 72 this week
1 commentread comment
1 2 3 4 5
x 18
add to favorites
×
Save as Personal and add changes to this tab that will be seen only by you. Learn more ›
×
You can save this tab as Personal to edit and correct it or add notes. All changes will be seen only by you. Learn more »
launch autoscroll
font size
0
reset
how to read this tab
guitar tuner
edit
Autoscroll
slow
fast
+/-
esc
set tempo
stop
Author
JAMBALAYA ON THE BAYOU
by Hank Williams Sr  1952
this is the way I do Jambalaya Key [C]                        
 
[C] Goodbye, joe, me gotta go, me oh my [G7] oh.
Me gotta go, pole the pirogue down the [C] bayou.
My yvonne, the sweetest one, me oh [G7] my oh.
Son of a gun, we'll have big fun on the [C] bayou.     
jambalaya and a crawfish pie and fillet [G7] gumbo   
Cause tonight I'm gonna see my ma cher [C] amio.      
Pick guitar, fill fruit jar and be [G7] gayo,
Son of a gun, we'll have big fun on the [C] bayou.

e|-------------------------------------------|
B|-------------------------------------------|
G|-------0---2------0----2------0--------0---|
D|---2----------2-----------2-------0--------|
A|-------------------------------------------|
E|-------------------------------------------|
    
e|-------------------------------------------|
B|-------------------------------------------|
G|---0---0---4---4---2---0---2---0---0-------|
D|---------------------------------------2---|
A|-------------------------------------------|
E|-------------------------------------------|
 
e|-------------------------------------------|
B|-------------------------------------------|
G|---5---5---5---2---0----5-^-2----0---------|
D|-------------------------------------0-----|
A|-------------------------------------------|
E|-------------------------------------------|
 
e|---------------------------------------------------|
B|---------------------------------------------------|
G|---0---0---0---4---4---2---0---0h2---0---0---------|
D|----------------------------------------------0----|
A|---------------------------------------------------|
E|---------------------------------------------------|

Thibodaux, Fontaineaux, the place is [G7] buzzin',
Kinfolk come to see Yvonne by the dozen.
We dress in style and go hog wild, me oh my oh.
Son of a gun, we'll have big fun on the bayou.     
Well jambalaya and a crawfish pie and fillet gumbo    
Cause tonight i'm gonna see my ma cher amio.      
Pick guitar, fill fruit jar and be gayo,
Son of a gun, we'll have big fun on the bayou.
   
Well jambalaya and a crawfish pie and fillet gumbo  
Cause tonight i'm gonna see my ma cher amio.   
We dress in style and go hog wild, me oh my oh.  
Son of a gun, we'll have big fun on the bayou.

************************************

| h  Hammer-on  

************************************
Suggest correction
Creating personal tab
Creating personal tab
You can edit any tab online and save it as your Personal.

You can edit, replace or remove any tab part or add personal notes – all changes will be seen only by you.

Personal tabs can be accessed anytime from any device, even offline.
Learn more »
comments
print report bad tab
1 comment total.
0 reply
FL_Bob2002 558 Sep 11, 2015 01:35 AM

Sounds okay, but playing this on the first 3 frets is easier and your fingers dont have to move around so much.
Like the 4 is actually the 2nd string open and
the 5 is the second string 1st fret C note

guest
You may want to rate the tab now too:
select rating
Wanna post a correction for this tab? Suggest correction