Oops, an error
Loading. Please wait.

Country Heroes tab

version 1
version 1

Whole song

712 views 12 this week
no commentswrite comment
1 2 3 4 5
3 more votes to show rating
add to favorites
×
Save as Personal and add changes to this tab that will be seen only by you. Learn more ›
×
You can save this tab as Personal to edit and correct it or add notes. All changes will be seen only by you. Learn more »
launch autoscroll
font size
0
reset
how to read this tab
guitar tuner
edit
Autoscroll
slow
fast
+/-
esc
set tempo
stop
Author
Difficulty
[INTRO]
      
Guitar 1                         Am
e|-----------------------------------0---------------------------------------|
B|----------------------------------1----------------------------------------|
G|---------------------------------2-----------------------------------------|
D|--------------------------------2------------------------------------------|
A|-7--7-6-5-3~--3-5/7-5-5h7-5-3-0--------------------------------------------|
E|---------------------------------------------------------------------------|

e|--0----------------------------8-5---5-8-5---5-----------------------------|
B|-/5--5-4-3-1--1-3/5-3--3h5-5/8-------------8-------------------------------|
G|---------------------------------------------------------------------------|
D|---------------------------------------------------------------------------|
A|---------------------------------------------------------------------------|
E|---------------------------------------------------------------------------|

Guitar 2 (Chords)

 The rhythm for the intro is the three chords Am C D, listen for timing.

 The picking pattern is one downstroke on the bass strings followed by an upstroke on the bass strings
 then a downstroke on the treble strings followed by an upstroke on the treble strings.

If you don't understand the picking pattern just do what sounds best to you.
     Am       C        D
e|---0--------0--------2-----------------------------------------------------|
B|---1--------1--------3-----------------------------------------------------|
G|---2--------0--------2-----------------------------------------------------|
D|---2--------2--------0-----------------------------------------------------|
A|---0--------3--------------------------------------------------------------|
E|---------------------------------------------------------------------------|

[Verse & Chorus]
  The rest of the song is played just the "(Guitar 2)'s" intro but maybe mute the strings when appropriate.   

Am                                      C                       D                            Am
Well oh what a feelin', that burns down low, when you ain't got nowhere to turn or nowhere to go.
 etc.


 Filler at (01:02)
 Filler at (02:33)
e|---------------------------------------------------------------------------|
B|---------------------------------------------------------------------------|
G|---------------------------------------------------------------------------|
D|---------------------------------------------------------------------------|
A|---------3-----------------------------------------------------------------|
E|-0-3-0-3---3-0-3b----------------------------------------------------------|
  
 Filler at (1:45)I can't figure out the higher sounding chords/notes I thing it's the steel guitar.
 Filler at (2:14)
e|---------------------------------------------------------------------------|
B|---------------------------------------------------------------------------|
G|---------------------------------------------------------------------------|
D|---------------------------------------------------------------------------|
A|---------------------------------------------------------------------------|
E|-0-0-0-0-3-5---------------------------------------------------------------|
 
[Ending Chords]
   Am          Am
e|-0-----------0-------------------------------------------------------------|
B|---1---------1-------------------------------------------------------------|
G|-----2-------2-------------------------------------------------------------|
D|-------2-----2-------------------------------------------------------------|
A|---------0---0-------------------------------------------------------------|
E|-----------0---------------------------------------------------------------|

************************************
| h   Hammer-on
| p   Pull-off
| b   Bend
| /   Slide up
| ~   Vibrato
************************************

            
            
Suggest correction
Creating personal tab
Creating personal tab
You can edit any tab online and save it as your Personal.

You can edit, replace or remove any tab part or add personal notes – all changes will be seen only by you.

Personal tabs can be accessed anytime from any device, even offline.
Learn more »
Give kudos to tab author, rate the tab!
1 2 3 4 5
comments
print report bad tab
guest
You may want to rate the tab now too:
select rating
Wanna post a correction for this tab? Suggest correction