Oops, an error
Loading. Please wait.

Tennessee Driver Tab

4,252 views 3 this week
no commentswrite comment
1 2 3 4 5
3 more votes to show rating
add to favorites
launch autoscroll
font size
0
reset
how to read this tab
guitar tuner
Autoscroll
slow
fast
+/-
esc
set tempo
stop
Help us to improve Ultimate-Guitar.com Take our survey!
×
("Dropped D" Tuning)

Note: Riffs 1 & 2 and Fill 1 are all downstrokes

[Intro] (arranged for one guitar)
E|------------------------------------------------------------|
B|------------------------------------------------------------|
G|------------------------------------------------------------|
D|------------------------------------------------------------|
A|/x\-0-3-2-/6-5h6p5h6p5---/5-4h5p4h5p4---/4-3h4p3h4p3----6-2-|
E|/x\-0-3-2------------/6-5-----------/5-4-----------/4-3-6-2-|
                                                         |PM|


E|----------------------------------------------------------|
B|----------------------------------------------------------|
G|----------------------------------------------------------|
D|----------------------------------------------------------|
A|-0-3-2-/6-5h6p5h6p5---/5-4h5p4h5p4---/4-3h4p3h4p3----6--2-|
E|-0-3-2------------/6-5-----------/5-4-----------/4-3-6--2-|
                                                      |.PM.|


E|-----------------------------------------|
B|-----------------------------------------|
G|-----------------------------------------|
D|-----------------------------------------|
A|-x-x-x-x-x-x-x-x-x-x-x-x-3---------------|
E|-x-x-x-x-x-x-x-x-x-x-x-x-3---------------|
  |..........PM...........||...let ring...|

(Note: In the above passage, the guitar simply accents
each note played by the bass with a muted "chunk")

[Riff 1]
   v v v v v v v v v v v v v v v v v v v v
E|------------------------------------------|
B|------------------------------------------|
G|------------------------------------------|
D|------------------------------------------|
A|-0-0-3-0-0-0-3-0-0-0-3-0-0-0-3-0-0-0-3-0--|etc.
E|-0-0-3-0-0-0-3-0-0-0-3-0-0-0-3-0-0-0-3-0--|etc.

[Riff 2]
   v v v v v v v v v v v v v v v v v v v v
E|------------------------------------------|
B|------------------------------------------|
G|------------------------------------------|
D|------------------------------------------|
A|-5-5-5-5-5-5-5-5-5-5-5-5-5-5-5-5-5-5-5-5--|etc.
E|-5-5-5-5-5-5-5-5-5-5-5-5-5-5-5-5-5-5-5-5--|etc.


[Fill 1]
   v v v v v v
E|----------------------------------------|
B|----------------------------------------|
G|----------------------------------------|
D|----------------------------------------|
A|-5-5-4-4-3-3----------------------------|
E|-5-5-4-4-3-3----------------------------|
  |....PM.....|

[Bridge] 4x

E|----------------------------------------|
B|----------------------------------------|
G|----------------------------------------|
D|----------------------------------------|
A|----------------------------------------|
E|-0-3-2-0-6-5-0-5-4-0-4-3-2-3-2-1--------|
Suggest correction
Give kudos to tab author, rate the tab!
1 2 3 4 5
comments
print report bad tab
guest
You may want to rate the tab now too:
select rating
Wanna post a correction for this tab? Suggest correction