Oops, an error
Loading. Please wait.

Aint Misbehavin tab

34 views 3 this week
no commentswrite comment
1 2 3 4 5
3 more votes to show rating
add to favorites
×
Save as Personal and add changes to this tab that will be seen only by you. Learn more ›
×
You can save this tab as Personal to edit and correct it or add notes. All changes will be seen only by you. Learn more »
launch autoscroll
font size
0
reset
how to read this tab
guitar tuner
edit
Autoscroll
slow
fast
+/-
esc
set tempo
stop
Ain't Misbehavin' (written by Fatts Waller)
Hank Williams Jr version:
https://www.youtube.com/watch?v=9I3P8uqCG_c

The non-guitar parts (sax, piano, cello) are essentially
accurate notes with a few modifications to accomodate the
range of guitar. The most obvious place is in the sax solo where
the ending passage has been lowered an octave. In the intro tab,
the rhythm count is noted with slashes "/" over each measure.
This rhythm is consistent throughout the song.

[Intro]
(Piano)
  C  /  /  /   G7 /  /  /   C /  C7 /   F  /  Fm  /
e|-------------|---------|-------------|---------------|
B|-------------|---------|-------------|---------------|
G|-------------|---------|-------4/5-5-|-6-7-5---------|
D|-------4/5-5-|-------7-|-5-7-5-------|-------7-------|
A|-3-5-3-------|-5-7-5---|-------------|---------7-6-5-|
E|-------------|---------|-------------|---------------|
   C / A7 /      Dm / G7 /       E7 / A7 /   Dm   /   G7    /
e|-------------|---------------|----------|---------------------------|
B|-------------|---------------|----------|---------------------------|
G|-------------|---------------|----------|----8h9-10-8h9-------------|
D|-------4/5-5-|-5-7-5-7-5-----|----------|-10------------10-7---7----|
A|-3-5-3-------|-----------6/7-|-5--------|--------------------10--10-|
E|-------------|---------------|----------|---------------------------|

(Guitar)
  C  /  /  /  G7 / / /    C   /  C7  /  F   /   Fm   /
e|-----------|-----------|--------8-8-|-9-9/10-8----------|
B|-------8-8-|--6---9/10-|-8-10-8-----|----------10-------|
G|-5-7-5-----|-7---------|------------|-------------10-7--|
D|-----------|-----------|------------|-------------------|
A|-----------|-----------|------------|-------------------|
E|-----------|-----------|------------|-------------------|
  C /  A7  /  Dm  /  G7 /   C  / F  / C  /  G7  /
e|-----------|-------------|---------|--8-8-8-8-8----|
B|-------8-8-|-6-8---------|---------|--5-6-7-8-8----|
G|-5-7-5-----|-----8\7p5---|-5h7-5---|---------------|
D|-----------|-----------7-|---------|---------------|
A|-----------|-------------|---------|---------------|
E|-----------|-------------|---------|---------------|

[Verse 1]
C                   G7
No one to talk with all by myself
C          C7               F             Fm
No one to walk with but I'm happy on the shelf
C           A7      Dm        G7       E7    A7   Dm   G7
Ain't misbehavin'  savin' my love for you

[Verse 2]
C                  G7
I know for certain you're the one I love
C             C7            F                Fm
I'm thru with flirtin' it's you I'm dreamin' of
C        A7         Dm      G7          C   F C E7
Ain't misbehavin'  savin' my love for you

[Bridge]
Am               F
Like Jack Horner in the corner
D7               A7
Don't go nowhere what do I care
G7           D7               G
Your kisses are worth waiting for
G7
Believe me

[Verse 3]
C                       G7
I don't stay out late don't care to go
C          C7             F         Fm
I'm home about eight just me and my radio
C        A7       Dm         G7      C   F C G7
Ain't misbehavin'  savin' my love for you

[Sax solo]
   C                  G7               C                C7
e|-------------------|---------------|-------------------13-17-13----|
B|-------------------|---------------|----------------13----------15-|
G|--------------12-12|------------14-|-12h14p12\11-12----------------|
D|-10-10h12p10-9-----|-12-14-11-12---|-------------------------------|
A|-------------------|---------------|-------------------------------|
E|-------------------|---------------|-------------------------------|
  F                    Fm      C         A7        Dm             G7            C
e|----------------------------|----------10-9----|------------14----------------------|
B|----------------------------|-----8-11------10-|------13-16----pb16r15p13------13---|
G|-13/14-13/14--9-10-12-11-10-|-8-9--------------|-13-14--------------------14-12-----|
D|----------------------------|------------------|------------------------------------|
A|----------------------------|------------------|------------------------------------|
E|----------------------------|------------------|------------------------------------|
   C            F              C      E7                 Am
e|----------------------------------|-------------------------|
B|-----10-8-------------------------|-------------------------|
G|-8-9------8-9---------------------|-------------------------|
D|--------------10-7---8-7----------|--9h10p9-7-6-------------|
A|-------------------10----10-8-7---|-------------9-8-7-6-----|
E|--------------------------------8-|---------------------7-8-|

[Bridge]
Am               F
Like Jack Horner in the corner
D7               A7
Don't go nowhere what do I care
G7           D7               G
Your kisses are worth waiting for
G7
Believe me

[Verse 3]
C                       G7
I don't stay out late don't care to go
C          C7             F         Fm
I'm home about eight just me and my radio
C        A7       Dm         G7      C   F C G7
Ain't misbehavin'  savin' my love for you

[Outro]
(Piano)
  C             G7          C    C7     F     Fm
e|-------------|---------|-------------|---------------|
B|-------------|---------|-------------|---------------|
G|-------------|---------|-------4/5-5-|-6-7-5---------|
D|-------4/5-5-|-------7-|-5-7-5-------|-------7-------|
A|-3-5-3-------|-5-7-5---|-------------|---------7-6-5-|
E|-------------|---------|-------------|---------------|
   C   A7        Dm   G7        C     F     C     G7
e|-------------|-------------|-----------|--------------|
B|-------------|-------------|-----------|--------------|
G|-------------|-------------|-----------|-8-9----------|
D|-------4/5-5-|-5-7-5-7-5---|--------7--|-----10-7-6-5-|
A|-3-5-3-------|-------------|--7-10-8---|--------------|
E|-------------|-----------7-|-8---------|--------------|

(Guitar)
  C           G7           C    C7     F           Fm
e|-----------|-----------|--------8-8-|-8-9-10-8--------------|
B|-------8-8-|------9/10-|-8-7-8------|----------10-----------|
G|-5-7-5-----|-7-9-7-----|------------|-------------10\9-7-7--|
D|-----------|-----------|------------|-----------------------|
A|-----------|-----------|------------|-----------------------|
E|-----------|-----------|------------|-----------------------|
  C     A7    Dm     G7     C         F  C     G7
e|-----------|-----------------------|--------|-----|
B|-------8-8-|-8h10-8----------------|--------|-----|
G|-5-7-5-----|-------10-8h9----------|--------|-----|
D|-----------|--------------10-7-10--|--------|-----|
A|-----------|-----------------------|--------|-----|
E|-----------|-----------------------|--------|-----|

(Cello)
  C             G7          C    C7     F     Fm
e|-------------|---------|-------------|---------------|
B|-------------|---------|-------------|---------------|
G|-------------|---------|-------4/5-5-|-6-7-5---------|
D|-------4/5-5-|-------7-|-5-7-5-------|-------7-------|
A|-3-5-3-------|-5-7-5---|-------------|---------7-6-5-|
E|-------------|---------|-------------|---------------|
   C   A7        Dm   G7      C                     C9
e|-------------|---------------|-------------------|-3--|
B|-------------|---------------|-------------------|-3--|
G|-------------|---------------|-------------------|-3--|
D|-------4/5-5-|-5-7-5-7-5-----|---------------10--|-2--|
A|-3-5-3-------|---------------|--7-8-9-10-9-8-----|-3--|
E|-------------|-----------7-8-|-------------------|----|

************************************

| h   Hammer-on
| p   Pull-off
| r   Release
| b   Bend
| pb  Pre-bend
| /   Slide up
| \   Slide down

************************************
Suggest correction
Creating personal tab
Creating personal tab
You can edit any tab online and save it as your Personal.

You can edit, replace or remove any tab part or add personal notes – all changes will be seen only by you.

Personal tabs can be accessed anytime from any device, even offline.
Learn more »
Give kudos to tab author, rate the tab!
1 2 3 4 5
comments
print report bad tab
guest
You may want to rate the tab now too:
select rating
Wanna post a correction for this tab? Suggest correction