Oops, an error
Loading. Please wait.

Country Boy Can Survive Tab

version 1
version 1

Intro

Whole song

15,455 views 60 this week
1 commentread comment
1 2 3 4 5
accurate
x 18
add to favorites
launch autoscroll
font size
0
reset
how to read this tab
guitar tuner
Tab Pro tools
  • play this tab
  • loop segment
  • change instrument
  • show fretboard
  • metronome
×
Best way to learn
"Country Boy Can Survive"
Autoscroll
slow
fast
+/-
esc
set tempo
stop
Contributor
Difficulty
intermediate
STRUM THE D CHORD 3 TIMES THEN THE C CHORD TWICE THEN YOU MOVE THE D CHORD UP TO THE 5TH 
FRET AND STRUM 3 TIMES THEN GO BACK TO A NORMAL D CHORD STRUM TWICE THEN PLAY THIS RIFF



E[-----------------------------------------------------------]
B[-----------------------------------------------------------]
G[-----------------------------------------------------------]
D[-3-2-0-----------------------------------------------------]
A[----------3-2-0------------0-------------------------------]
E[--------------------2h4------------------------------------]
comments
print report bad tab
1 comment total.
-1 reply
DemonicTurtle66 wrote on November 20 2014, 05:02 pm

I think the very beginning goes D, C, then D at 5th fret like you said, but then you play D again, but at the 14th fret. So like this

E[-2--2-22------------5--5-5---14--14-----------------------]
B[-3--3-33---11--11---6--6-6---15--15-----------------------]
G[-3--2-22---00--00---5--5-5---14--14-----------------------]
D[-0--0-00---22--22---0--0-0---00--00-----------------------]
A[-----------33--33-----------------------------------------]
E[----------------------------------------------------------]

It sounds nice if you slide up the D on the 14th fret.

I want to post or [tab]
guest
You may want to rate the tab now too:
select rating
Please do not post tabs as comments. Select "correction" instead!