Oops, an error
Loading. Please wait.

Whiskey Bent And Hell Bound bass

55 views 3 this week
no commentswrite comment
1 2 3 4 5
3 more votes to show rating
add to favorites
×
Save as Personal and add changes to this tab that will be seen only by you. Learn more ›
×
You can save this tab as Personal to edit and correct it or add notes. All changes will be seen only by you. Learn more »
launch autoscroll
font size
0
reset
guitar tuner
edit
Autoscroll
slow
fast
+/-
esc
set tempo
stop
4/4
 
[Intro]                                                             
G|--------------------------------|--------------------------------|
D|--------------------------------|0-----------0---0-----------0---|
A|--------------------------------|--------------------------------|
E|3-----------0---3---------------|--------------------------------|
                                                                     
G|0-----------0-------------------|--------------------------------|
D|----------------0---------------|--------------------------------|
A|--------------------------------|--------------------------------|
E|--------------------------------|3-------3-----------------------|
 
[Verse]                                                             
G|0-----------0-------------------|0-----------0-------0-----------|
D|----------------0---------------|----------------0-------0-------|
A|--------------------------------|--------------------------------|
E|--------------------------------|--------------------------------|
                                                                     
G|--------------------------------|0-----------0-------------------|
D|--------------------------------|----------------0---------------|
A|3-----------3---3---------------|--------------------------------|
E|--------------------------------|--------------------------------| 
                                                                    
G|0-----------0-------------------|0-----------0-------------------|
D|----------------0---------------|--------------------------------|
A|--------------------------------|----------------2-------3-------|
E|--------------------------------|--------------------------------|
                                                                     
G|----------------2-----------2---|--------------------------------|
D|0-----------0-------------------|0-----------0---2-------4-------|
A|--------------------------------|--------------------------------|
E|--------------------------------|--------------------------------| 
                                                                    
G|0-----------0-------------------|0-----------0---0---------------|
D|----------------0-----------0---|------------------------0-------|
A|--------------------------------|--------------------------------|
E|--------------------------------|--------------------------------|
                                                                     
G|--------------------------------|0-----------0-------------------|
D|--------------------------------|----------------0-----------0---|
A|3-----------3---3-----------3---|--------------------------------|
E|--------------------------------|--------------------------------|
 
[Chorus]                                                            
G|0-----------0-------------------|--------------------------------|
D|--------------------------------|0-----------0---0-----------0---|
A|----------------2-------3---3---|--------------------------------|
E|--------------------------------|--------------------------------|
                                                                     
G|0-----------0-------------------|0-------0-----------------------|
D|----------------0---------------|--------------------------------|
A|--------------------------------|--------------------------------|
E|--------------------------------|--------------------------------|
 
[Verse]                                                             
G|0-----------0-------------------|0-----------0-------0-----------|
D|----------------0---------------|----------------0-------0-------|
A|--------------------------------|--------------------------------|
E|--------------------------------|--------------------------------|
                                                                     
G|--------------------------------|0-----------0-------------------|
D|--------------------------------|----------------0---------------|
A|3-----------3---3---------------|--------------------------------|
E|--------------------------------|--------------------------------|
                                                                     
G|0-----------0-------------------|0-----------0-------------------|
D|----------------0---------------|--------------------------------|
A|--------------------------------|----------------2-------3-------|
E|--------------------------------|--------------------------------|
                                                                     
G|----------------2-----------2---|--------------------------------|
D|0-----------0-------------------|0-----------0---2-------4-------|
A|--------------------------------|--------------------------------|
E|--------------------------------|--------------------------------|
                                                                    
G|0-----------0-------------------|0-----------0---0---------------|
D|----------------0-----------0---|------------------------0-------|
A|--------------------------------|--------------------------------|
E|--------------------------------|--------------------------------|
                                                                     
G|--------------------------------|0-----------0-------------------|
D|--------------------------------|----------------0-----------0---|
A|3-----------3---3-----------3---|--------------------------------|
E|--------------------------------|--------------------------------|
 
[Chorus]                                                           
G|0-----------0-------------------|--------------------------------|
D|--------------------------------|0-----------0---0-----------0---|
A|----------------2-------3---3---|--------------------------------|
E|--------------------------------|--------------------------------| 
                                                                    
G|0-----------0-------------------|0-------0-----------------------|
D|----------------0---------------|--------------------------------|
A|--------------------------------|--------------------------------|
E|--------------------------------|--------------------------------|
 
[Solo]                                                             
G|0-----------0-------------------|0-----------0-------0-----------|
D|----------------0---------------|----------------0-------0-------|
A|--------------------------------|--------------------------------|
E|--------------------------------|--------------------------------|
                                                                   
G|--------------------------------|0-----------0-------------------|
D|--------------------------------|----------------0---------------|
A|3-----------3---3---------------|--------------------------------|
E|--------------------------------|--------------------------------|
                                                                    
G|0-----------0-------------------|0-----------0---------------0---|
D|----------------0---------------|----------------0---------------|
A|--------------------------------|--------------------------------|
E|--------------------------------|--------------------------------| 
                                                                    
G|0-----------0-------------------|0-------------------------------|
D|----------------0-----------0---|--------0---0---2-------4---4---|
A|--------------------------------|--------------------------------|
E|--------------------------------|--------------------------------|
 
[Verse]                                                            
G|0-----------0-------------------|0-----------0---0---------------|
D|----------------0-----------0---|------------------------0-------|
A|--------------------------------|--------------------------------|
E|--------------------------------|--------------------------------|
                                                                     
G|--------------------------------|0-----------0-------------------|
D|--------------------------------|----------------0-----------0---|
A|3-----------3---3-----------3---|--------------------------------|
E|--------------------------------|--------------------------------|
                                                                     
G|0-----------0-------------------|0-------------------------------|
D|----------------0-----------0---|------------0-------------------|
A|--------------------------------|----------------2-------3-------|
E|--------------------------------|--------------------------------|
                                                                     
G|----------------2---------------|--------------------------------|
D|0-----------0---------------0---|0-----------0---2-------4-------|
A|--------------------------------|--------------------------------|
E|--------------------------------|--------------------------------|
                                                                     
G|0-----------0-------------------|0-----------0-------0-----------|
D|----------------0---------------|----------------0-------0-------|
A|--------------------------------|--------------------------------|
E|--------------------------------|--------------------------------| 
                                                                    
G|--------------------------------|0-----------0-------------------|
D|--------------------------------|----------------0---------------|
A|3-----------3---3---------------|--------------------------------|
E|--------------------------------|--------------------------------|
 
[Chorus]                                                           
G|0-------------------------------|--------------------------------|
D|--------------------------------|0-----------0---0-----------0---|
A|----------------2-------3-------|--------------------------------|
E|--------------------------------|--------------------------------| 
                                                                    
G|0-----------0-------------------|0-------------------------------|
D|----------------0-----------0---|--------0-------2-------4---4---|
A|--------------------------------|--------------------------------|
E|--------------------------------|--------------------------------|
 
[Verse]                                                            
G|0-----------0-------------------|0-----------0-------0-----------|
D|----------------0---------------|----------------0-------0-------|
A|--------------------------------|--------------------------------|
E|--------------------------------|--------------------------------| 
                                                                    
G|--------------------------------|0-----------0-------------------|
D|--------------------------------|----------------0-----------0---|
A|3-----------3---3-----------3---|--------------------------------|
E|--------------------------------|--------------------------------|
                                                                     
G|0-----------0-------------------|0-----------0-------------------|
D|----------------0-----------0---|--------------------------------|
A|--------------------------------|----------------2-------3---3---|
E|--------------------------------|--------------------------------|
                                                                    
G|----------------2---------------|--------------------------------|
D|0-----------0---------------0---|0-------0-------2-------4---4---|
A|--------------------------------|--------------------------------|
E|--------------------------------|--------------------------------| 
                                                                    
G|0-----------0-------------------|0-----------0-------0-----------|
D|----------------0---------------|----------------0-------0-------|
A|--------------------------------|--------------------------------|
E|--------------------------------|--------------------------------| 
                                                                    
G|--------------------------------|0-----------0-------------------|
D|--------------------------------|----------------0-----------0---|
A|3-----------3---3-----------3---|--------------------------------|
E|--------------------------------|--------------------------------|
 
[Chorus]                                                           
G|0-----------0-------------------|--------------------------------|
D|--------------------------------|0-----------0---0-----------0---|
A|----------------2-------3-------|--------------------------------|
E|--------------------------------|--------------------------------| 
                                                                    
G|0-----------0-------------------|0-------------------------------|
D|----------------0-----------0---|--------0-------2-------4---4---|
A|--------------------------------|--------------------------------|
E|--------------------------------|--------------------------------|
                                                                     
G|0-----------0-------------------|------------0-------------------|
D|--------------------------------|0---------------0---------------|
A|----------------2-------3---3---|--------------------------------|
E|--------------------------------|--------------------------------| 
                                                                   
G|--------------------------------|0-------------------------------|
D|----------------0-----------0---|----0---2-----------------------|
A|--------------------------------|--------------------------------|
E|3-----------3-------------------|----------------3---------------|

            
            
Suggest correction
Creating personal tab
Creating personal tab
You can edit any tab online and save it as your Personal.

You can edit, replace or remove any tab part or add personal notes – all changes will be seen only by you.

Personal tabs can be accessed anytime from any device, even offline.
Learn more »
Give kudos to tab author, rate the tab!
1 2 3 4 5
comments
print report bad tab
guest
You may want to rate the tab now too:
select rating
Wanna post a correction for this tab? Suggest correction