Oops, an error
Loading. Please wait.

I Thought I Was A Good Man Tab

4 views 1 this week
no commentswrite comment
1 2 3 4 5
3 more votes to show rating
add to favorites
launch autoscroll
font size
0
reset
how to read this tab
guitar tuner
Autoscroll
slow
fast
+/-
esc
set tempo
stop
Help us to improve Ultimate-Guitar.com Take our survey!
×
Author
Difficulty
intermediate
Tabbed by J


[Intro]

e|-3----x----3-|
B|-3----5----3-|
G|-3----5----4-|
D|-5----5----5-|
A|-5----3----5-|
E|-3----x----3-|


[Verse]
Each part is mostly the same progression with minor differences 

I thought I was a good man
But baby then I walked alone at night

e|-x-x-x-x-x-x-x-x-x-|
B|-x-x-x-x-x-x-x-x-x-|
G|-5-5-x-x-5-5-4-2-x-|
D|-5-5-5-5-5-5-4-2-2-|
A|-3-3-5-5-3-3-2-0-2-|
E|-x-x-3-3-x-x-x-x-0-|

e|-x-x-x-x-x-x-x-x-x-0-0-|
B|-x-x-x-x-x-x-x-x-x-0-0-|
G|-5-5-x-x-5-5-4-2-x-0-0-|
D|-5-5-5-5-5-5-4-2-2-2-2-|
A|-3-3-5-5-3-3-2-0-2-2-2-|
E|-x-x-3-3-x-x-x-x-0-0-0-|

e|-x-x-x-x----------x-|
B|-x-x-x-x----------x-|
G|-5-5-x-x-5b-5-4-2-x-|
D|-5-5-5-5----------2-|
A|-3-3-5-5----------2-|
E|-x-x-3-3----------0-|

e|-x-x-x-x-x-x-x-x-x-|
B|-x-x-x-x-x-x-x-x-x-|
G|-5-5-x-x-5-5-4-2-x-|
D|-5-5-5-5-5-5-4-2-2-|
A|-3-3-5-5-3-3-2-0-2-|
E|-x-x-3-3-x-x-x-x-0-|


[Chorus]

I thought I was a
I thought I was a 
I thought I was a good man

e|-x-x-----------------------x-x-x-x-x-x-|
B|-x-x-----------------------x-x-x-x-x-x-|
G|-x-x-----------------------5-5-5-5-x-x-| 
D|-2-2-5-7-5---5-5-9-9-7-5---5-5-5-5-5-5-|
A|-2-2-------6-------------3-3-3-3-3-5-5-|
E|-0-0-----------------------x-x-x-x-3-3-|(x2)


[Outro]

e|-12p11-12p11-12p11-12p11------------------------------------------|
B|------------------------------------------------------------------|
G|------------------------------------------------------------------|
D|------------------------------------------------------------------|
A|------------------------7-7-7-7-6-6-6-6-7-7-7-7-6-6-6-6-7-7-7-7-6-|
E|------------------------------------------------------------------|



************************************

| x   dead note
| p   Pull-off
| b   Bend

************************************
Suggest correction
Give kudos to tab author, rate the tab!
1 2 3 4 5
comments
print report bad tab
guest
You may want to rate the tab now too:
select rating
Wanna post a correction for this tab? Suggest correction