Oops, an error
Loading. Please wait.

Leave Me Alone tab

version 1
version 1

Whole song

Interactive

1,818 views 9 this week
1 commentread comment
1 2 3 4 5
2 more votes to show rating
add to favorites
×
Save as Personal and add changes to this tab that will be seen only by you. Learn more ›
×
You can save this tab as Personal to edit and correct it or add notes. All changes will be seen only by you. Learn more »
launch autoscroll
font size
0
reset
how to read this tab
guitar tuner
edit
Autoscroll
slow
fast
+/-
esc
set tempo
stop
+--------------------------------------------------------------------------+
| This file is the author's own work and represents their interpretation   |
| of the song. You may only use this file for private study, scholarship,  |
| or research.                                                             |
+--------------------------------------------------------------------------+

Artist: Hanna Pakarinen - Leave Me Alone
Album: Lovers (2007)
Tuning: DADGBe (Drop D)
Tabbed by: Kasper K.

This is Finland's song for the Eurovision Song Contest 2007. I thought it was pretty 
so i made a tab. ;). Hope you like it.

*UPDATE*

The solo was incomplete, it should be good now. :)
Thanks goes to metal_man409e. Much appreciated.

Look at bottom for order to play the song, and listen to song for rhytm.

\ = Slide down
/ = Slide up
. = palm mute
~ = let ring

[INTRO]
e|------------------------------|
B|------------------------------|
G|------------------------------|
D|-2/44-2/4-xxx-2/44-2/4/55-xxx-|
A|-2/44-2/4-xxx-2/44-2/4/55-xxx-|
D|-2/44-2/4-xxx-2/44-2/4/55-xxx-|

e|------------------------------|
B|------------------------------|
G|------------------------------|
D|-2/44-2/4-xxx-2/44-2/4/55--4~-|
A|-2/44-2/4-xxx-2/44-2/4/55--4~-|
D|-2/44-2/4-xxx-2/44-2/4/55--4~-|

[BACKGROUND RIFF]
e|-7-----9---------|
B|---9-9---9-9-10~-|
G|-----------------|
D|-----------------|
A|-----------------|
D|-----------------|
(You hear this in the background, several times.)

[PRE-CHORUS]
e|-------------|
B|-------------|
G|-6~-6-7~-777-|
D|-6~-6-7~-777-|
A|-4~-4-5~-555-|
D|-------------|

[CHORUS]
e|------------------------|
B|------------------------|
G|--------------6/777-----|
D|-2/44-2/4-777-6/777-222-|
A|-2/44-2/4-777-4/555-222-|
D|-2/44-2/4-777-------222-|

e|------------------------|
B|------------------------|
G|--------------6/777-----|
D|-2/44-2/4-777-6/777-999-|
A|-2/44-2/4-777-4/555-999-|
D|-2/44-2/4-777-------999-|

e|------------------------|
B|------------------------|
G|--------------6/777-----|
D|-2/44-2/4-777-6/777-222-|
A|-2/44-2/4-777-4/555-222-|
D|-2/44-2/4-777-------222-|

e|-----------------------------------------|
B|-----------------------------------------|
G|-6/777-xxx-6/777-xxx-3/444-xxx-3/444-xxx-|
D|-6/777-xxx-6/777-xxx-3/444-xxx-3/444-xxx-|
A|-4/555-xxx-4/555-xxx-1/222-xxx-1/222-xxx-|
D|-----------------------------------------|

[P.M. RIFF]
e|------------------------|
B|------------------------|
G|-----------7777-777-444-|
D|-4444-7777-7777-777-444-|
A|-4444-7777-5555-555-222-|
D|-4444-7777--------------|
   .... .... .... ... ...

[SOLO PART]
e|-----------------------------|
B|-----------------------------|
G|-13--------------------------|
D|----16-14-14-16-14-12--------|
A|----------------------16-14--|
D|-----------------------------|

e|-----------------------------|
B|-----------------------------|
G|-13----14-13-----------------|
D|----16-------16-15-12--------|
A|----------------------16-14--|
D|-----------------------------|

e|----------------------------------|
B|----------------------------------|
G|-13-------------------------------|
D|----16-14-14-16-14-12-------------|
A|----------------------16-14-12-11-|
D|----------------------------------|

[END PART]
e|------------------------|
B|------------------------|
G|--------------6/777-----|
D|-2/44-2/4-777-6/777-222-|
A|-2/44-2/4-777-4/555-222-|
D|-2/44-2/4-777-------222-|

e|-------------------------------|
B|-------------------------------|
G|--------------6/777-888/101010-|
D|-2/44-2/4-777-6/777-xxx/101010-|
A|-2/44-2/4-777-4/555-666/-9-9-9-|
D|-2/44-2/4-777------------------|

e|------------------------|
B|------------------------|
G|--------------6/777-----|
D|-2/44-2/4-777-6/777-222-|
A|-2/44-2/4-777-4/555-222-|
D|-2/44-2/4-777-------222-|

e|-----------------------------------------|
B|-----------------------------------------|
G|-6/777-xxx-6/777-xxx-3/444-xxx-3/444-xxx-|
D|-6/777-xxx-6/777-xxx-3/444-xxx-3/444-xxx-|
A|-4/555-xxx-4/555-xxx-1/222-xxx-1/222-xxx-|
D|-----------------------------------------|
(This is basically the chorus, with a few changes.)

e|--------------------------|
B|--------------------------|
G|--------------------------|
D|-2/44-2/4-xxx-2/44-2/4/55-|
A|-2/44-2/4-xxx-2/44-2/4/55-|
D|-2/44-2/4-xxx-2/44-2/4/55-|
(Same as first part of the intro.)

+----------------------+
Order to play the song:

1: Intro
2: Background riff
3: Pre-chorus
4: Chorus
5: 2nd part of intro
6: Background riff
7: P.M. riff
8: Pre-chorus
9: Chorus
10: Solo part
11: Pre-chorus
12: End part
+----------------------+

            
            
Suggest correction
Creating personal tab
Creating personal tab
You can edit any tab online and save it as your Personal.

You can edit, replace or remove any tab part or add personal notes – all changes will be seen only by you.

Personal tabs can be accessed anytime from any device, even offline.
Learn more »
Give kudos to tab author, rate the tab!
1 2 3 4 5
comments
print report bad tab
1 comment total.
0 reply
metal_man_409e 10 May 31, 2007 10:00 AM

much better :) thanks for mentioning me :)

guest
You may want to rate the tab now too:
select rating
Wanna post a correction for this tab? Suggest correction