Oops, an error
Loading. Please wait.

East Side Tab

212 views 1 this week
no commentswrite comment
1 2 3 4 5
please rate
add to favorites
launch autoscroll
font size
0
reset
how to read this tab
guitar tuner
Tab Pro tools
  • play this tab
  • loop segment
  • change instrument
  • show fretboard
  • metronome
Autoscroll
slow
fast
+/-
esc
set tempo
stop
Contributor
Difficulty
intermediate
Capo 2
You can figure out on your own when Josh sings and when Hannah sings.

Intro: FOLLOW STRUM PATTERN!
E|-------------------------------------|
B|-------------------------------------|
G|-1--2--1--4--1--2--4/6--6/8--9--9/11-|
D|-2--2--2--4--2--2--4/6--6/8--9--9/11-|
A|-2-----2--2--2-----2/4--4/6--7--7/9--|
E|-------------------------------------|

Finger Picking:                                Start a Strum here|
E|----------------------------------------------------------------------|
B|----------------------------------------------------------------------|
G|-----1-------1-------2-------2-------1-------1-------2---------2------|
D|---2---2---2---2---2---2---2---2---2---2---2---2---2---2---2---2------|
A|-2-------2-------0-------0-------2-------2-------0-------0------------|
E|----------------------------------------------------------------------|

Verse:
    Would you meet me on the East Side, my bride?
E|--------------------------------------------------------------------|
B|--------------------------------------------------------------------|
G|---1-----------------------------------2----------------------------|
D|---2-----------------------------------2----------------------------|
A|---2----------------------------------------------------------------|
E|--------------------------------------------------------------------|
    Would you bother to stay with me     tonight?
E|--------------------------------------------------------------------|
B|--------------------------------------------------------------------|
G|---1-----------------------------------2----------------------------|
D|---2-----------------------------------2----------------------------|
A|---2----------------------------------------------------------------|
E|--------------------------------------------------------------------|
     Let me ask you-- are you here for the show? Are you here for
E|--------------------------------------------------------------------|
B|--------------------------------------------------------------------|
G|---1-----------------------------------2----------------------------|
D|---2-----------------------------------2----------------------------|
A|---2----------------------------------------------------------------|
E|--------------------------------------------------------------------|
     the show? And i say ..............."no"
E|--------------------------------------------------------------------|
B|--------------------------------------------------------------------|
G|---1-----------------------------------2----------------------------|
D|---2-----------------------------------2----------------------------|
A|---2----------------------------------------------------------------|
E|--------------------------------------------------------------------|

Repeat Intro (Without the finger picking part)

Chorus:
   Cause Baby; We're falling Down! And nobody can take my eyes off...
E|--------------------------------------------------------------------|
B|--------------------------------------------------------------------|
G|---9--------4--------------6---------2------------------------------|
D|---9--------4--------------6---------2------------------------------|
A|---7--------2--------------4----------------------------------------|
E|--------------------------------------------------------------------|

     you. hold tightly, keep my feet on the ground. its not like
E|--------------------------------------------------------------------|
B|--------------------------------------------------------------------|
G|---9------------------4-------------------6------------2------------|
D|---9------------------4-------------------6------------2------------|
A|---7------------------2-------------------4-------------------------|
E|--------------------------------------------------------------------|
    I have wondered what to do, when all i want is you, I want you...
E|--------------------------------------------------------------------|
B|--------------------------------------------------------------------|
G|--------------------------6-----------------------2-----------------|
D|--------------------------6-----------------------2-----------------|
A|--------------------------4-----------------------------------------|
E|--------------------------------------------------------------------|

(Begin finger picking again as you sing "too")

    Would you tell me the things that i need to hear?
E|--------------------------------------------------------------------|
B|--------------------------------------------------------------------|
G|---1------------------------------------------2---------------------|
D|---2------------------------------------------2---------------------|
A|---2----------------------------------------------------------------|
E|--------------------------------------------------------------------|
    Just to see me light up instead of   tear
E|--------------------------------------------------------------------|
B|--------------------------------------------------------------------|
G|---1-----------------------------------2----------------------------|
D|---2-----------------------------------2----------------------------|
A|---2----------------------------------------------------------------|
E|--------------------------------------------------------------------|
     Now let me ask you the question are you here to stay?
E|--------------------------------------------------------------------|
B|--------------------------------------------------------------------|
G|---1--------------------------------------------2-------------------|
D|---2--------------------------------------------2-------------------|
A|---2----------------------------------------------------------------|
E|--------------------------------------------------------------------|
     Either way, does it honestly even  matter anyway?
E|--------------------------------------------------------------------|
B|--------------------------------------------------------------------|
G|---1-----------------------------------2----------------------------|
D|---2-----------------------------------2----------------------------|
A|---2----------------------------------------------------------------|
E|--------------------------------------------------------------------|

REPEAT INTRO AND CHORUS

BRIDGE: (Word placement matches up with Hannah's part)

E|--------------------------------------------------------------------|
B|--------------------------------------------------------------------|
G|---6----------9------------------2---------------4------------------|
D|---6----------9------------------2---------------4------------------|
A|---4----------7----------------------------------2------------------|
E|--------------------------------------------------------------------|

    Would  you  meet  me  on  the  east  side  my  bride?
E|--------------------------------------------------------------------|
B|--------------------------------------------------------------------|
G|---6----------9------------------2---------------4------------------|
D|---6----------9------------------2---------------4------------------| x2
A|---4----------7----------------------------------2------------------|
E|--------------------------------------------------------------------|

CHORUS

END on: E (first chord played in song)


Enjoy folks. I made these tabs up by ear, but I do know for sure it's played on capo 2-
it is shown in their live video. It's not too difficult to play as long as you know the song.
comments
We did not receive enough feedback on this tab! Please rate:
print report bad tab
1 2 3 4 5
I want to post or [tab]
guest
You may want to rate the tab now too:
select rating
Please do not post tabs as comments. Select "correction" instead!