Oops, an error
Loading. Please wait.

Watch This Coward Dance Tab

version 2
version 2

Whole song

479 views 1 this week
3 commentsread comments
1 2 3 4 5
x 5
add to favorites
launch autoscroll
font size
0
reset
how to read this tab
guitar tuner
×
Best way to learn
"Watch This Coward Dance"
Autoscroll
slow
fast
+/-
esc
set tempo
stop
Author
I got it from
http://www.yuwie.com/lzacoustic

====================================================

watch this coward dance-hannah combs
e.a.d.g.b.E

opening:

-x------------------|
------8---------8---|
----0----0----0-----| continues the picking
-10--------10-------|
-x------------------|
-x------------------|
summer is calling me

-x------------------|
------8---------8---|
----0----0----0-----| continues the picking
-7----------7-------|
-x------------------|
-x------------------|
as my

-x------------------|
------8---------8---|
----0----0----0-----| continues the picking
-10--------10-------|
-x------------------|
-x------------------|
veins from last year are slowly deta-

-x------------------|
------8---------8---|
----0----0----0-----| continues the picking
-7----------7-------|
-x------------------|
-x------------------|
ching

-x------------------|
------8---------8---|
----0----0----0-----| continues the picking
-10--------10-------|
-x------------------|
-x------------------|
meet me under the willow tree

-x------------------|
------8---------8---|
----0----0----0-----| continues the picking
-7----------7-------|
-x------------------|
-x------------------|
so we

-x------------------|
------8---------8---|
----0----0----0-----| continues the picking
-10--------10-------|
-x------------------|
-x------------------|
can embrace and catch up on every-

-x--------------------------------------------|
------8---------8-----------------------------|
----0----0----0----- continues the picking ---|then strum
-7----------7---------------------------------|
-x--------------------------------------------|
-x--------------------------------------------|
thing

(10.10.10.x.x.x)look to me with those (5.5.5.x.x.x)bloodshot eyes
and (0.0.0.x.x.x)tell me i'm not (3.3.3.x.x.x)what you wanted
(10.10.10.x.x.x)when your nights are (5.5.5.x.x.x)long
and you hear this (0.0.0.x.x.x)song
promise (3.3.3.x.x.x)not to think of me

-x------------------|
------8---------8---|
----0----0----0-----| continues the picking
-10--------10-------|
-x------------------|
-x------------------|
memories are slowly

-x------------------|
------8---------8---|
----0----0----0-----| continues the picking
-7----------7-------|
-x------------------|
-x------------------|
fading as my

-x------------------|
------8---------8---|
----0----0----0-----| continues the picking
-10--------10-------|
-x------------------|
-x------------------|
hopes for tomorrow are in-

-x------------------|
------8---------8---|
----0----0----0-----| continues the picking
-7----------7-------|
-x------------------|
-x------------------|
vading my mind

-x------------------|
------8---------8---|
----0----0----0-----| continues the picking
-10--------10-------|
-x------------------|
-x------------------|
close the door and keep me

-x------------------|
------8---------8---|
----0----0----0-----| continues the picking
-7----------7-------|
-x------------------|
-x------------------|
waiting there's no

-x------------------|
------8---------8---|
----0----0----0-----| continues the picking
-10--------10-------|
-x------------------|
-x------------------|
way for you to es-

-x--------------------------------------------|
------8---------8-----------------------------|
----0----0----0----- continues the picking ---|then strum
-7----------7---------------------------------|
-x--------------------------------------------|
-x--------------------------------------------|
cape this this time

(10.10.10.x.x.x)look to me with those (5.5.5.x.x.x)bloodshot eyes
and (0.0.0.x.x.x)tell me i'm not (3.3.3.x.x.x)what you wanted
(10.10.10.x.x.x)when your nights are (5.5.5.x.x.x)long
and you hear this (0.0.0.x.x.x)song
promise (3.3.3.x.x.x)not to think of me

(0.0.0.x.x.x)promises will (3.3.3.x.x.x)surely break
you're (10.10.10.x.x.x)smiling but we (5.5.5.x.x.x)know it's fake
(0.0.0.x.x.x)i hope you've not had (3.3.3.x.x.x)all you can take
because i'm (10.10.10.x.x.x)not stopping (5.5.5.x.x.x)now (7.7.7.x.x.x)

(10.10.10.x.x.x)look to me with those (5.5.5.x.x.x)bloodshot eyes
and (0.0.0.x.x.x)tell me i'm not (3.3.3.x.x.x)what you wanted
(10.10.10.x.x.x)when your nights are (5.5.5.x.x.x)long
and you hear this (0.0.0.x.x.x)song
promise (3.3.3.x.x.x)not to think of (10.10.10.x.x.x)me
Suggest correction
comments
print report bad tab
3 comments total.
-2 reply
Travis54546979 67 Dec 29, 2008 03:36 PM

terrible the only thing right is the intro its drop D

+3 reply
mgalree 10 Jan 24, 2009 07:15 PM

the whole thing is right, just play in drop d tune.
PROOF: i have checked hannah combs' myspace blog 'guitar/piano chords.

0 reply
greatain 10 Jan 27, 2009 12:53 AM

AGREE WITH MGALREE!
THE WHOLE THING IS RIGHT! JUST PLAY IN DROP D !!!!
DROP D !!!!
DROP D !!!!
DROP D !!!!
DROP D !!!!
DROP D !!!!
DROP D !!!!
DROP D !!!!
DROP D !!!!

guest
You may want to rate the tab now too:
select rating
Wanna post a correction for this tab? Suggest correction