Oops, an error
Loading. Please wait.

Best Of Both Worlds tab

version 2
version 2

Whole song

Interactive

9,662 views 3 this week
1 commentread comment
1 2 3 4 5
1 last vote to show rating
add to favorites
×
Save as Personal and add changes to this tab that will be seen only by you. Learn more ›
×
You can save this tab as Personal to edit and correct it or add notes. All changes will be seen only by you. Learn more »
launch autoscroll
font size
0
reset
how to read this tab
guitar tuner
edit
Autoscroll
slow
fast
+/-
esc
set tempo
stop
Author
Difficulty
----------------------------------------------------------------------------
                  Best of Both Worlds - Hannah Montana
----------------------------------------------------------------------------
Tabbed by: Lorenzo Bonoan with Band instructor sir cello
Email: bonoan1027@yahoo.com


Tuning:Standard
Advice:(use the wah-wah pedal for the verses and the last chorus)

Intro:

e|----------------------------------------------|
B|-6/8--6-4-6-4---6/8--6-4----6/8--6-4-6-4---4~-|
G|-6/8--6-4-6-4---6/8--6-4----6/8--6-4-6-4---4~-|
D|-6/8--6-4-6-4---6/8--6-4----6/8--6-4-6-4---4~-|
A|----------------------------------------------|
E|----------------------------------------------|



Verse 1: C#9-F#(2x) (strum really fast!)


Pre-Chorus 1: B9-G#7-A#7


Chorus 1: Eb-A#-G#-A#7 (2x)


Intro:

e|----------------------------------------------|
B|-6/8--6-4-6-4---6/8--6-4----6/8--6-4-6-4---4~-|
G|-6/8--6-4-6-4---6/8--6-4----6/8--6-4-6-4---4~-|
D|-6/8--6-4-6-4---6/8--6-4----6/8--6-4-6-4---4~-|
A|----------------------------------------------|
E|----------------------------------------------|


Verse 2: C#9-F#(2x) (strum really fast!)


Pre-Chorus 1: B9-G#7-A#7


Chorus 1: Eb-A#-G#-A#7 (2x)


Bridge:

e|------------------------------------------------------------|
B|------------------------------------------------------------|
G|-10-8-------------------6-8-6---------------6-8-6-----------|
D|-10-8-8-6-6666666---6-8-6-8-6-6-6666666-6-8-6-8-6-6-6666666-|
A|-8--6-8-6-6666666---6-8-4-6-4-6-6666666-6-8-4-6-4-6-6666666-|
E|------6-4-4444444---4-6-------4-4444444-4-6-------4-4444444-|

e|-4-4--4----4-4--4----4-4--4----------------------------------------------|
B|-4-4--4----4-4--4----4-4--4----------------------------------------------|
G|-6-6--6----6-6--6----6-6--6----------------------------------------------|
D|-6-6--6----6-6--6----6-6--6----------------------------------------------|
A|-4-4--4----4-4--4----4-4--4----------------------------------------------|
E|-------------------------------------------------------------------------|


Pre-Chorus 2:B9-G#7-A#7-C7


Chorus 2:F-C-Bb-C(3x), F-C-Bb-G#7-Bb-F


| /  slide up
| ~  vibrato


I dedicate this song to my Band WPD and to our band instructor, Sir Cello!
============================================================================

            
            
Suggest correction
Creating personal tab
Creating personal tab
You can edit any tab online and save it as your Personal.

You can edit, replace or remove any tab part or add personal notes – all changes will be seen only by you.

Personal tabs can be accessed anytime from any device, even offline.
Learn more »
Give kudos to tab author, rate the tab!
1 2 3 4 5
comments
print report bad tab
1 comment total.
0 reply
kingurth 155 Jun 17, 2007 09:10 PM

Uh...no.

guest
You may want to rate the tab now too:
select rating
Wanna post a correction for this tab? Suggest correction