Oops, an error
Loading. Please wait.

Bigger Than Us tab

version 1
version 1

Whole song

Interactive

3,684 views 1 this week
no commentswrite comment
1 2 3 4 5
2 more votes to show rating
add to favorites
×
Save as Personal and add changes to this tab that will be seen only by you. Learn more ›
×
You can save this tab as Personal to edit and correct it or add notes. All changes will be seen only by you. Learn more »
launch autoscroll
font size
0
reset
how to read this tab
guitar tuner
edit
Autoscroll
slow
fast
+/-
esc
set tempo
stop
Author
Difficulty
Alright so I would like to say that i'm writing this tab
down by ear but i did this after having listened to
"capa345"'s video on youtube. I would like to give him the
credit for this tab. You should watch his video to know
what this tab sounds like. It is all power chords so I hope
it works!By the way I only marked the power chord once to save
space and time but while playing the song, play each one
more than once :) Good Luck!! :)

Verse:
E--------------|
B--------------|
G--------------|
D-----4-----2--|      (x2)
A--2--2--4--0--|
E--0-----2-----|

Chorus:
E--------------------------------|
B--------------------------------|
G--------------------------------|
D-----4--2--4-----4--2-----------|
A--2--2--0--2--2--2--0--2--4--7--|
E--0-----------0--------0--2--5--|

Climax:
E----------------------------------|
B----------------------------------|
G----------------------------------|
D----------------------------6--4--|
A--7--4--7--4--2----2--4--7--4--2--|
E--5--2--5--2--0----0--2--5--------|

End Chorus:
E--------------|
B--------------|
G--------------|
D--------2-----|
A--2--4--0--4--|
E--0--2-----2--|
 (strike each of these only once)

Order of song:
Verse
Chorus
Verse
Chorus
Climax (it fills the universe...it's love it's love)
End Chorus

            
            
Suggest correction
Creating personal tab
Creating personal tab
You can edit any tab online and save it as your Personal.

You can edit, replace or remove any tab part or add personal notes – all changes will be seen only by you.

Personal tabs can be accessed anytime from any device, even offline.
Learn more »
Give kudos to tab author, rate the tab!
1 2 3 4 5
comments
print report bad tab
guest
You may want to rate the tab now too:
select rating
Wanna post a correction for this tab? Suggest correction