Oops, an error
Loading. Please wait.

If We Were A Movie tab

version 2
version 2

Whole song

13,015 views 3 this week
4 commentsread comments
1 2 3 4 5
x 4
add to favorites
×
Save as Personal and add changes to this tab that will be seen only by you. Learn more ›
×
You can save this tab as Personal to edit and correct it or add notes. All changes will be seen only by you. Learn more »
launch autoscroll
font size
0
reset
how to read this tab
guitar tuner
edit
Autoscroll
slow
fast
+/-
esc
set tempo
stop
This is my first tab so go easy on me. I'm sure this is 100% right. I played along with 
song and it sounded exactly like it.

Hannah Montana- If we were a movie

Intro: Strum pattern: VV^
e|------------------------------------------|
B|------------------------------------------|
G|9-----6-----------4-----------6-----------|
D|9-----6-----7-----4-----6-----4-----7-----|
A|7-----4-----7-----2-----6-----4-----7-----|
E|------------5-----------4-----------5-----|

Verse: Strum pattern: V^V^(let ring)
e|---------------|
B|---------------|
G|6-----4--------|
D|6-----4-----7--|
A|4-----2-----7--|
E|------------5--|
“Oh, oh, there you go again…”

Pre-chorus
e|------------------|
B|------------------|
G|----let---4-let---|
D|--7—ring--4-ring--|
A|--7-------2-------|
E|--5---------------|
“For the obvious instead of me…”

Chorus
e|-------------------------------------------|
B|-------------------------------------------|
G|------6-----------4-----------6------------|
D|9-----6-----7-----4-----6-----4-----7---9--|
A|9-----4-----7-----2-----6-----4-----7---9--|
E|7-----------5-----------4-----------5---7--|
“If we were a movie…”

Bridge: Strum pattern : VVVVVVVVVV

E|--------------|
B|--------------|
G|---------9----|
D|--9—-7---9—-9-|
A|--9—-7---7—-9-|
E|--7—-5------7-|
“Wish I could tell you there’s a twist, some hero in disguise…”

E|------------------|
B|------------------|
G|----------9--11---|
D|--9---7---9—-11---|
A|--9---7---7—-9----|
E|--7---5---x--x----|
“Like something more then in my mind…”

Song Order:
Intro
Verse x3
Pre-chrous
Chorus
Intro
Verse x3
Pre-chorus
Chorus
Intro
Bridge
Intro
Chorus
Intro
Chorus

V = downstroke
^ = upstroke

            
            
Suggest correction
Creating personal tab
Creating personal tab
You can edit any tab online and save it as your Personal.

You can edit, replace or remove any tab part or add personal notes – all changes will be seen only by you.

Personal tabs can be accessed anytime from any device, even offline.
Learn more »
comments
print report bad tab
4 comments total. Showing first comments.
0 reply
aznguitarist123 172 Aug 16, 2007 11:12 AM

oh and for the bridge

E|------------------|
B|------------------|
G|----------9--11---|
D|--9---7---9—-11---|
A|--9---7---7—-9----|
E|--7---5---x--x----|
“Like something more then in my mind…”

i made a mistake, it's suppose to be

E|------------------|
B|------------------|
G|--------9--11-----|
D|----7---9—-11-----|
A|----7---7—-9------|
E|----5---x--x------|
“Like something more then in my mind…”

0 reply
iluvjonasgurl 237 Jan 28, 2008 12:43 PM

sounds good to me!

0 reply
ncroxalot4 215 Jun 12, 2008 07:25 PM

i think the chorus and intro would sound bettter like this


INTRO
e|------------------------------------------|
B|------------------------------------------|
G|------6-----------4-----------6-----------|
D|2-----6-----7-----4-----6-----4-----7-----|
A|2-----4-----7-----2-----6-----4-----7-----|
E|0-----------5-----------4-----------5-----|

CHORUS
e|-------------------------------------------|
B|-------------------------------------------|
G|------6-----------4-----------6------------|
D|2-----6-----7-----4-----6-----4-----7--9---|
A|2-----4-----7-----2-----6-----4-----7--9---|
E|0-----------5-----------4-----------5--7---|

guest
You may want to rate the tab now too:
select rating
Wanna post a correction for this tab? Suggest correction