Oops, an error
Loading. Please wait.

Ive Got Nerve tab

version 1
version 1

Whole song

Interactive

10,149 views 1 this week
13 commentsread comments
1 2 3 4 5
x 16
add to favorites
×
Save as Personal and add changes to this tab that will be seen only by you. Learn more ›
×
You can save this tab as Personal to edit and correct it or add notes. All changes will be seen only by you. Learn more »
launch autoscroll
font size
0
reset
how to read this tab
guitar tuner
edit
Autoscroll
slow
fast
+/-
esc
set tempo
stop
Difficulty
hey. this is the whole version thats not on tv. you can listen to it here:
http://youtube.com/watch?v=L5TaSSvIO5o

I dont know how to describe the rhythm. You kind of have to listen to the song to get 
Im pretty sure that its 100% correct.
so here it is =]

Intro
E------------------------------------------|
B------------------------------------------|
G------------------------------------------|
D------------5-6---------------------------|
A-6-6---6-6--5-6---------------------------|
E-6-6---6-6--3-4---------------------------|

Verse
E----------------------------------------------------|
B----------------------------------------------------|
G----------------------------------------------------|
D------------8-8---8-8---5-5---5-5---6-6---6-6-------|
A-6-6---6-6--8-8---8-8---5-5---5-5---6-6---6-6-------|
E-6-6---6-6--6-6---6-6---3-3---3-3---4-4---4-4-------|

Pre-Chorus
E------------------------------------------|
B------------------------------------------|
G------------------------------------------|
D-6-----3------10-----6-------10-----------|
A-6-----3------10-----6-------10-----------|
E-4-----1------8------4-------8------------|
Chorus
E--------------------------------------------|
B--------------------------------------------|
G--------------------------------------------|
D-------6------10------8---------------------|
A-6-----6------10------8---------------------|
E-6-----4------8-------6-------x2------------|

Bridge
E-------------------------------------------|
B-------------------------------------------|
G-5--3--6-----------------------------------|
D-5--3--6--6--------------------------------|
A-3--1--4--6----x2--------------------------|
E----------4--------------------------------|

SONG ORDER:
Intro
Verse
Pre-Chorus
Chorus
Intro
Verse
Pre-Chorus
Chorus x2
Bridge
Chorus x4 (first part of first chorus is slow and the rest is normal)
Intro x3-ish?


I didnt put the strumming patterns cause you can just sort of guess them if you just listen to the song.

Thanks!
Suggest correction
Creating personal tab
Creating personal tab
You can edit any tab online and save it as your Personal.

You can edit, replace or remove any tab part or add personal notes – all changes will be seen only by you.

Personal tabs can be accessed anytime from any device, even offline.
Learn more »
comments
print report bad tab
13 comments total. Showing first comments.
+1 reply
thingamabob93 10 Oct 28, 2006 08:57 AM

In the pre-chorus the last one should be 688

+4 reply
TOAOIsaac 20 Jul 01, 2007 07:33 PM

If you dislike the show and person, then why are you looking up tabs for their songs?

+4 reply
MegaTastic 10 Jul 16, 2007 01:51 PM

i totally agree with TOAOIsaac.

guest
Wanna post a correction for this tab? Suggest correction