Oops, an error
Loading. Please wait.

Rock Star bass

version 1
version 1

Whole song

Interactive

3,521 views 1 this week
no commentswrite comment
1 2 3 4 5
3 more votes to show rating
add to favorites
×
Save as Personal and add changes to this tab that will be seen only by you. Learn more ›
×
You can save this tab as Personal to edit and correct it or add notes. All changes will be seen only by you. Learn more »
launch autoscroll
font size
0
reset
guitar tuner
edit
Autoscroll
slow
fast
+/-
esc
set tempo
stop
Author
Difficulty
artist:hannah montana
song:rock star

      this song was hard 2 figure out but I think I got it!
     this is also tabbed straight through. the reason i made this
       tab is because i`ve used a lot of tabs from ultimate guitar 
      so i think i should give something back,and because i really       like this song

   (Intro)(yeah oh oh oh....)
   G|-----------------|
   D|-----------------|
   A|-------5\-----5\-|
   E|-----------------|

   (Verse)(x2)                             (2nd time)
   G|-------------------------------------|----------------------------|
   D|(palm mute)--------------------------|(open)----------------------|
   A|-55555555-33333333-------------------|----------5~--7~-3~-1~--5~~-|
   E|-------------------55555555-33333333-|----------------------------|

   (Chorus)(x3)      (3rd time)  (2 times after)
   G|---------------|-----------|-------------|
   D|---------------|-----------|-------------|
   A|-55-77---------|55555555p--|-55-77-------|
   E|--------77--33-|-----------|-------77-33-|

   (verse)(x2)                              (2nd time)
   G|-------------------------------------|----------------|
   D|(palm mute)--------------------------|(open)----------|
   A|-55555555-33333333-------------------|-5~-7~-3~-1~-5~-|
   E|-------------------55555555-33333333-|----------------|

   (Chorus)(x3)      (3rd time)
   G|---------------|-----------|
   D|---------------|-----------|
   A|-55-77---------|55555555p--|
   E|--------77--33-|-----------|

   (Bridge)(if you only....)
   G|-------------------------|
   D|-------------------------|
   A|----------5\--------5\---| 
   E|-------------------------|

   (Guitar solo)(x3) (3rd time)
   G|---------------|--------------|
   D|---------------|--------------|
   A|-55-77---------|5555-99999999-|
   E|--------77--33-|--------------|

   (Chorus)(x3)      (3rd time)
   G|---------------|----------------|
   D|---------------|----------------|
   A|-55-77---------|555555555555555-|
   E|--------77--33-|----------------|

   (Outro)(x2)
   G|---------------|
   D|---------------|
   A|-55-77---------|
   E|--------77--33-|




   
Suggest correction
Creating personal tab
Creating personal tab
You can edit any tab online and save it as your Personal.

You can edit, replace or remove any tab part or add personal notes – all changes will be seen only by you.

Personal tabs can be accessed anytime from any device, even offline.
Learn more »
Give kudos to tab author, rate the tab!
1 2 3 4 5
comments
print report bad tab
guest
You may want to rate the tab now too:
select rating
Wanna post a correction for this tab? Suggest correction