Oops, an error
Loading. Please wait.

Rockstar tab

5,228 views 3 this week
2 commentsread comments
1 2 3 4 5
2 more votes to show rating
add to favorites
×
Save as Personal and add changes to this tab that will be seen only by you. Learn more ›
×
You can save this tab as Personal to edit and correct it or add notes. All changes will be seen only by you. Learn more »
launch autoscroll
font size
0
reset
how to read this tab
guitar tuner
edit
Autoscroll
slow
fast
+/-
esc
set tempo
stop
Difficulty
intermediate
The beginning of the song sounds like that song Kryptonite, but I'm positive that that's 
the song goes.

Intro Part 1
e------------------------------------------------------------------|
b-----------3--------------3-----------------2--------------2------|
g--------4-----4--------4-----4-----------2-----2--------2-----2---|
d-----4--------------4----------------4---------------4------------|   x2
a--2------------------------------0----------------0---------------|
E-----------------3------------------------------------------------|

Intro Part 2
e----------------------------------------------------------|
b------------------3---22-3-----3---22-3-------------------|
g------7---66-7------2------------2-----------7----66------|
d--7-----7--------------------------------------7-----7----|   x2
a--5-------------4-----------5-------------7---------------|
E----------------2-----------3-------------5---------------|


Chorus
e----------------                 e--------------|
b----------------                 b--------------|
g----------------                 g--------------|
d--7------5------  x3, then play  d--------------|
a--5--7---3--5---                 a--5555555-7---|
E-----5------3---                 E--3333333-5---|


That's all I could figure out. There's not really much on the verses, and I was too lazy 
figure out the bridge.

                                         Ciao Bella!

            
            
Suggest correction
Creating personal tab
Creating personal tab
You can edit any tab online and save it as your Personal.

You can edit, replace or remove any tab part or add personal notes – all changes will be seen only by you.

Personal tabs can be accessed anytime from any device, even offline.
Learn more »
Give kudos to tab author, rate the tab!
1 2 3 4 5
comments
print report bad tab
2 comments total.
0 reply
RoknRoLL90 10 Oct 05, 2007 06:55 AM

This songz awesome and so is itz solo. U should post the solo. I cant find it newhere.

0 reply
I am punk "BF" 200 Jan 11, 2008 07:17 PM

I really wanted the solo too.

guest
Wanna post a correction for this tab? Suggest correction