Oops, an error
Loading. Please wait.

True Friend intro tab

version 1
version 1

Intro

Whole song

14,241 views 1 this week
3 commentsread comments
1 2 3 4 5
x 5
add to favorites
×
Save as Personal and add changes to this tab that will be seen only by you. Learn more ›
×
You can save this tab as Personal to edit and correct it or add notes. All changes will be seen only by you. Learn more »
launch autoscroll
font size
0
reset
how to read this tab
guitar tuner
edit
Autoscroll
slow
fast
+/-
esc
set tempo
stop
Difficulty
this is my first tab :D
but yeah its the riff or whatevers.

e--------0--2---0----------------0--2----------|
B------0--0---0--0------------0--0-------------|
G------------------------------2---------------|
D---2-----------------------2------------------|
A----------------------------------------------|
E----------------------------------------------|
Suggest correction
Creating personal tab
Creating personal tab
You can edit any tab online and save it as your Personal.

You can edit, replace or remove any tab part or add personal notes – all changes will be seen only by you.

Personal tabs can be accessed anytime from any device, even offline.
Learn more »
comments
print report bad tab
3 comments total.
0 reply
shift.comma.3 50 Jan 22, 2008 12:48 AM

hey! how come it doesnt say that I'm the user who posted it?! :[

0 reply
lee20131230 10 May 29, 2008 06:47 PM

yeah, ummmm.......... close
it should be
e-------0---2---0---0----------0---2-----|
B-----0---0-------0----------0---0-------|
G--------------------------2-------------|
D--2---------------------2---------------|
A----------------------------------------|
E----------------------------------------|

0 reply
shift.comma.3 50 Aug 02, 2008 12:06 AM

gimme a break, I was posting from my itouch -_-;;

guest
Wanna post a correction for this tab? Suggest correction