Oops, an error
Loading. Please wait.

True Friend tab

version 1
version 1

Whole song

30,943 views 3 this week
no commentswrite comment
1 2 3 4 5
x 3
add to favorites
×
Save as Personal and add changes to this tab that will be seen only by you. Learn more ›
×
You can save this tab as Personal to edit and correct it or add notes. All changes will be seen only by you. Learn more »
launch autoscroll
font size
0
reset
how to read this tab
guitar tuner
edit
Autoscroll
slow
fast
+/-
esc
set tempo
stop
Author
Difficulty
Hannah Montana
True Friend
Hannah Montana 2 Meet Miley Cyrus


i'll only have the tab form for the lead part


this is the main riff used in intro
E-------0---2---0---0-|-------0---2--|
B-----0---0-------0---|-----0---0----|
G---------------------|---2----------|
D-2-------------------|-2------------|
A---------------------|--------------|
E---------------------|--------------|

and verse
E-------0---2---0---0-|-------0---2--|
B-----0---0-------0---|-----0---0----|
G---------------------|---2----------| Play this part 3 times
D-2-------------------|-2------------|
A---------------------|--------------|
E---------------------|--------------|

E-------0---2---0---0-|-----------2--|
B-----0---0-------0---|-------5------|
G---------------------|-----4---4----|
D-4-------------------|---4----------|
A---------------------|-2------------|
E---------------------|--------------|


guitar 2 comes in the 2nd verse only, the part "you know the secrets i could never 
until chorus. Do this in PALM MUTE
E------------------------------------------------------|
B------------------------------------------------------|
G------------------------------------------------------|
D------------------------------------------------------|
A--11--11--11----9--9--9----9--7--7--9--7--11--11--11--|
E------------------------------------------------------|


Then the 2nd half of chorus after the bridge, the part "you're tru-u-u-ue friend/ you're 
till the end"

E-------0-----------------------------------------------|
B-----0---0-------------2---------------------------0---| play this 2X
G-----------------4-------4-------------------2---------| then back to
D-2-------------4-----4-------------4-------2-----2---2-| strumming
A-----------2---------------------4---4-0---------------|
E-----------------------------2-------------------------|

for the outro, strum the full E chord upward

anyway here's the chords, everything's in power chords using only 3 strings per chord, 
you could just ignore the "minor". Actually there are no strumming part for the verse i 
but just in case you want to strum for it

E                             A
We sign our cards and letters BFF
E                             A
You've got a million ways to make me laugh
E                                  A
You're lookin' out for me; you've got my back
         F#m                 B
It's so good to have you around

E                             A
You know the secrets I could never tell
E                             A
And when I'm quiet you break through my shell
E                            A
Don't feel the need to do a rebel yell
           F#m
Cause you keep my feet on the ground

          E  B  F#m  A
You're a true friend
E       B             A  B
You're here till the end
     E
You pull me aside
B
When something ain't right
F#m                A
Talk with me now and into the night
C#m  B                A
'Til it's alright again
                  E
You're a true friend

(repeat verse chords)
You don't get angry when I change the plans
Somehow you're never out of second chances
Won't say "I told you" when I'm wrong again
I'm so lucky that I've found

(repeat chorus chords)
A true friend
You're here till the end
You pull me aside
When something ain't right
Talk with me now and into the night
'Til it's alright again

       G#m       C#m        G#m         C#m
True friends will go to the ends of the earth
           F#m                 B
Till they find the things you need
 G#m         C#m            G#m         C#m
Friends hang on through the ups and the downs
             F#m                 A   B
Cause they've got someone to believe in

(repeat chorus chords twice)
A true friend
You're here till the end
You pull me aside
When something ain't right
Talk with me now and into the night
No need to pretend
You're a true friend
You're here till the end
Pull me aside
When something ain't right
Talk with me now and into the night
'Til it's alright again

(do the main riff twice)
(outro)

Thats it
By the way, these are all my work (except for the lyrics of course), i do not copy 
tabs or parts of it, so just in case you see other tabs identical to this, its all 
i tabbed this by ear
HAVE FUN!!!!

            
            
Suggest correction
Creating personal tab
Creating personal tab
You can edit any tab online and save it as your Personal.

You can edit, replace or remove any tab part or add personal notes – all changes will be seen only by you.

Personal tabs can be accessed anytime from any device, even offline.
Learn more »
Give kudos to tab author, rate the tab!
1 2 3 4 5
comments
print report bad tab
guest
You may want to rate the tab now too:
select rating
Wanna post a correction for this tab? Suggest correction