Oops, an error
Loading. Please wait.

Human Fly Bass Tab

1,019 views 3 this week
no commentswrite comment
1 2 3 4 5
please rate
add to favorites
launch autoscroll
font size
0
reset
guitar tuner
Autoscroll
slow
fast
+/-
esc
set tempo
stop
Help us to improve Ultimate-Guitar.com Take our survey!
×
Author
Difficulty
novice
Artist/Band - Hanni El Khatib 
Song - "Human Fly" 
Tuning - Standard ( EADG )

http://www.youtube.com/watch?v=J2jCAC15ONE
(Bass starts playing at 0:20 )

G|------------------------------|
D|------------------------------|X4
A|-------3-------3____----------|
E|--5-5----5---5----------------|


G|------------------------------|
D|-------3-------3____----------|X2
A|--5-5----5---5----------------|
E|------------------------------|


G|------------------------------|
D|------------------------------|x2
A|-------3-------3____----------|
E|--5-5----5---5----------------|


G|------------------------------|
D|------------------------------|x2
A|------------------------------|
E|--0-0--3-0---0-3____----------|


G|------------------------------|
D|------------------------------|x8
A|-------3-------3____----------|
E|--5-5----5---5----------------|


A|------------------------------|
G|------------------------------|
D|------------------------------|x1
E|--5-5-----5-5-----------------|


G|------------------------------|
D|------------------------------|x6
A|-------3-------3____----------|
E|--5-5----5---5----------------|


A|------------------------------|
G|------------------------------|
D|------------------3-5---------|x1
E|--5-5-----5-5---5-------------|


G|---------------------------------------------|
D|-------3-------3____-----------3-------------|X1
A|--5-5----5---5------------5-5----5-(5)3------|
E|----------------------------------------3----|


G|------------------------------|
D|------------------------------|x2
A|-------3-------3____----------|
E|--5-5----5---5----------------|


G|---------------------------------------------|
D|-------3-------3____-----------3-------------|X1
A|--5-5----5---5------------5-5----5-(5)3------|
E|----------------------------------------3----|


G|------------------------------|
D|------------------------------|x2
A|-------3-------3____----------|
E|--5-5----5---5----------------|


G|------------------------------|
D|------------------------------|x2
A|------------------------------|
E|--0-0--3-0---0-3____----------|


G|------------------------------|
D|------------------------------|x8
A|-------3-------3____----------|
E|--5-5----5---5----------------|



A|------------------------------|
G|------------------------------|
D|------------------------------|x1
E|--5-5-----5-5-----------------|


G|------------------------------|
D|------------------------------|( many times with small
A|-------3-------3____----------|variations until 2:40 )
E|--5-5----5---5----------------|

G|------------------------------|
D|-------3-------3____----------|X2
A|--5-5----5---5----------------|
E|------------------------------|


G|------------------------------|
D|------------------------------|x2
A|-------3-------3____----------|
E|--5-5----5---5----------------|


G|------------------------------|
D|------------------------------|x2
A|------------------------------|
E|--0-0--3-0---0-3____----------|


G|-------------------------------|
D|-------------------------------|
A|-------3-------3____-----------|
E|--5-5----5---5-------------5\0-|


I know it's not perfect .. it has tiny variations , but I suppose those aren't too 
signifiant ^^; ...
Contact me at http://w22374.deviantart.com or AR88MMM@yahoo.com :) .


| /  slide up
| \  slide down
| h  hammer-on
| p  pull-off
| ~  vibrato
| +  harmonic
| x  Mute note
Suggest correction
Give kudos to tab author, rate the tab!
1 2 3 4 5
comments
print report bad tab
guest
You may want to rate the tab now too:
select rating
Wanna post a correction for this tab? Suggest correction