Oops, an error
Loading. Please wait.

Pay No Mind Tab

version 2
version 2

Whole song

19 views 1 this week
no commentswrite comment
1 2 3 4 5
2 more votes to show rating
add to favorites
launch autoscroll
font size
0
reset
how to read this tab
guitar tuner
Autoscroll
slow
fast
+/-
esc
set tempo
stop
Help us to improve Ultimate-Guitar.com Take our survey!
×
Author
Difficulty
intermediate
Intro 

e|--------------------------------------|
B|--------------------------------------|
G|--------------------------------------|
D|--------------------------------------|
A|--7-6-5-4-3-2-1-0---------------------|
E|--------------------------------------|

Verse
e|--------------------------------------|
B|--------------------------------------|
G|----------7-7----5-5------------------|
D|--7-7-----7-7----5-5------------------|
A|--7-7-----5-5----3-3------------------|
E|--5-5---------------------------------|x4

Chorus/Fill
e|--------------------------------------|
B|--------------------------------------|
G|--------------------------------------|
D|--7------12-------10------12----------|
A|--7------12-------10------12----------|
E|--5------10--------8------10----------|x4

e|--------------------------------------------|
B|--------------------------------------------|
G|----------5--------5-----------5---------5--|
D|------5-7----7-7-5-7----5-5-5-7---7-7-5-7---|
A|--7-7--------5-5--------3-3-------5-5-------|
E|--5-5---------------------------------------|

e|--------------------------------------------------|
B|--------------------------------------------------|
G|----------5--------5-----------5------------------|
D|------5-7----7-7-5-7----5-5-5-7-------------------|
A|--7-7--------5-5--------3-3-------7-6-5-4-3-2-1-0-|
E|--5-5---------------------------------------------|

Verse
e|--------------------------------------|
B|--------------------------------------|
G|----------7-7----5-5------------------|
D|--7-7-----7-7----5-5------------------|
A|--7-7-----5-5----3-3------------------|
E|--5-5---------------------------------|x4

Chorus/Fill
e|--------------------------------------|
B|--------------------------------------|
G|--------------------------------------|
D|--7------12-------10------12----------|
A|--7------12-------10------12----------|
E|--5------10--------8------10----------|x4

e|--------------------------------------------|
B|--------------------------------------------|
G|----------5---------5----------5---------5--|
D|------5-7----7-7-5-7----5-5-5-7---7-7-5-7---|
A|--7-7--------5-5--------3-3-------5-5-------|
E|--5-5---------------------------------------|

e|--------------------------------------------------|
B|--------------------------------------------------|
G|----------5---------5----------5------------------|
D|------5-7----7-7-5-7----5-5-5-7-------------------|
A|--7-7--------5-5--------3-3-------7-6-5-4-3-2-1-0-|
E|--5-5---------------------------------------------|

Bridge

e|--------------------------------------|
B|--------------------------------------|
G|--------------------------------------|
D|--7-7-7-5-----------------------------|
A|--7-7-7-5-----------------------------|
E|--5-5-5-3-----------------------------|x12

Then

e|--------------------------------------|
B|--------------------------------------|
G|--------------------------------------|
D|--------------------------------------|
A|--7-6-5-4-3-2-1-0---------------------|
E|--------------------------------------|

End

Verse
e|----------------------------------------|
B|----------------------------------------|
G|----------7-7----5-5----7-7-------------|
D|--7-7-----7-7----5-5----7-7-------------|
A|--7-7-----5-5----3-3----5-5-------------|
E|--5-5-----------------------------------|x2

Chorus/Fill
e|--------------------------------------|
B|--------------------------------------|
G|--------------------------------------|
D|--7------12-------10------12----------|
A|--7------12-------10------12----------|
E|--5------10--------8------10----------|x4

e|--------------------------------------------|
B|--------------------------------------------|
G|----------5---------5----------5---------5--|
D|------5-7----7-7-5-7----5-5-5-7---7-7-5-7---|
A|--7-7--------5-5--------3-3-------5-5-------|
E|--5-5---------------------------------------|

e|----------------------------------|
B|----------------------------------|
G|----------5---------5----------5--|
D|------5-7----7-7-5-7----5-5-5-7---|
A|--7-7--------5-5--------3-3-------|
E|--5-5-----------------------------|
Suggest correction
Give kudos to tab author, rate the tab!
1 2 3 4 5
comments
print report bad tab
guest
You may want to rate the tab now too:
select rating
Wanna post a correction for this tab? Suggest correction