Oops, an error
Loading. Please wait.

Kill City Bass Tab

16 views 1 this week
no commentswrite comment
1 2 3 4 5
3 more votes to show rating
add to favorites
launch autoscroll
font size
0
reset
guitar tuner
Autoscroll
slow
fast
+/-
esc
set tempo
stop
Help us to improve Ultimate-Guitar.com Take our survey!
×
Author
Difficulty
novice
------------------------------------------------------------------------------
                     Kill City - Hanoi Rocks
------------------------------------------------------------------------------

Tabbed by: ChrisT

From the Album: Self Destruction Blues (1983)

Tuning: Standard

Intro (0:24)
G|----------------------------------------------------------------------|
D|o--------------------------------------------------------------------o|
A|o--7-------------------------------5---------------------------------o|
E|----------------------------------------------------------------------|

Verse
G|-------------------------------------------------------------------------------------|
D|o------------------------------------------------------------------------------------|
A|o-------------------------------------------------------------------2-2--3-3--5-5----|
E|---0-0--2-2--3-3--5-5--0-0--2-2--3-3--5-5--5-5--3-3--2-2--0-0--5-5-------------------|

G|-------------------------------------------------------------------------------------|
D|----------------------------2-2--4-4--5-5-------------------------------------------o|
A|---5-5--3-3--2-2-------5-5--------------------------------2-2--2-2------------------o|
E|------------------5-5----------------------3-3--5-5--6-6------------5-5--3-3--2-2----|

G|----------------------------------------------------------------------|
D|o--------------------------------------------------------------------o|
A|o--7-------------------------------5---------------------------------o|
E|----------------------------------------------------------------------|

Chorus                         Repeat x3
G|--------------------------------------|
D|o------------------------------------o|
A|o------------------------------------o|
E|---x-5-5-5-x-3-3-3-x-1-1-1-x-3-3-3----|

                                                           Repeat x3
G|------------------------------------------------------------------|---------------------|
D|o----------------------------------------------------------------o|---------------------|
A|o----------------------------------------------------------------o|---------------------|
E|---x-5-5-5--5-5-5-x-3-3-3--3-3-3-x-1-1-1--1-1-1-x-3-3-3--3-3-3----|---x-3-3-3--3-3-3----|

G|----------------------------------------------------------------------|
D|----------------------------------------------------------------------|
A|---7-------------------------------5----------------------------------|
E|----------------------------------------------------------------------|

Verse
G|-------------------------------------------------------------------------------------|
D|-------------------------------------------------------------------------------------|
A|--------------------------------------------------------------------2-2--3-3--5-5----|
E|---0-0--2-2--3-3--5-5--0-0--2-2--3-3--5-5--5-5--3-3--2-2--0-0--5-5-------------------|

G|-------------------------------------------------------------------------------------|
D|----------------------------2-2--4-4--5-5--------------------------------------------|
A|---5-5--3-3--2-2-------5-5--------------------------------2-2--2-2-------------------|
E|------------------5-5----------------------3-3--5-5--6-6------------5-5--3-3--2-2----|

G|----------------------------------------------------------------------|
D|----------------------------------------------------------------------|
A|---7---------------------------7---5----------------------------------|
E|----------------------------------------------------------------------|

G|----------------------------------------------------------------------|
D|----------------------------------------------------------------------|
A|---7-------------------------------5----------------------------------|
E|----------------------------------------------------------------/x\---|

Chorus                         Repeat x3
G|--------------------------------------|
D|o------------------------------------o|
A|o------------------------------------o|
E|---x-5-5-5-x-3-3-3-x-1-1-1-x-3-3-3----|

                                                           Repeat x3
G|------------------------------------------------------------------|---------------------|
D|o----------------------------------------------------------------o|---------------------|
A|o----------------------------------------------------------------o|---------------------|
E|---x-5-5-5--5-5-5-x-3-3-3--3-3-3-x-1-1-1--1-1-1-x-3-3-3--3-3-3----|---x-3-3-3--3-3-3----|

                               Repeat x3
G|--------------------------------------|
D|o------------------------------------o|
A|o------------------------------------o|
E|---x-5-5-5-x-3-3-3-x-1-1-1-x-3-3-3----|

G|------------------------------------------------------------------|---------------------|
D|o----------------------------------------------------------------o|---------------------|
A|o----------------------------------------------------------------o|---------------------|
E|---x-5-5-5--5-5-5-x-3-3-3--3-3-3-x-1-1-1--1-1-1-x-3-3-3--3-3-3----|---x-3-3-3--3-3-3----|

Guitar solo
G|----------------------------------------------------------------------|
D|----------------------------------------------------------------------|
A|---7---------------------------7---5---------------------------5-6----|
E|----------------------------------------------------------------------|

G|----------------------------------------------------------------------|
D|----------------------------------------------------------------------|
A|---7-------------------------------5----------------------------------|
E|----------------------------------------------------------------------|

G|----------------------------------------------------------------------|
D|----------------------------------------------------------------------|
A|---7-------------------------------5---------------------------5------|
E|----------------------------------------------------------------------|

G|----------------------------------------------------------------------|
D|----------------------------------------------------------------------|
A|---7-------------------------------5----------------------------------|
E|----------------------------------------------------------------------|

Outro                                                                        Repeat to fade
G|-----------------------------------------------------------------------------------------|
D|o---------------------------------------------------------------------------------------o|
A|o--7-7--9-9--10-10--9-9--7-7--9-9--10-10--9-9--5-5--7-7--9-9--7-7--5-5--7-7--9-9--7-7---o|
E|-----------------------------------------------------------------------------------------|

----------------
 x - Mute Note
 / - Slide Up
 \ - Slide Down
----------------
Suggest correction
Give kudos to tab author, rate the tab!
1 2 3 4 5
comments
print report bad tab
guest
You may want to rate the tab now too:
select rating
Wanna post a correction for this tab? Suggest correction